MUZBANK



A Most Complete Bank Of Music Information

МУЗЫКАЛЬНО-ИНФОРМАЦИОННЫЙ БАНК

Поиск по сайту







    MMeshuggah • Transfixion (аккорды и текст - chords & lyrics)


    287

    Print

    Видео «Transfixion (Meshuggah)»

    Видео клипы к песне подбираются автоматически сайтом youtube. Возможны некоторые несоответствия клипов песне.

    ↑ Спрятать рекламу ↑



    Download



     
    
    
    M E S H U G G A H 
                                 T R A N S F I X I O N
    
    Meshuggah uses 7-string guitars but, i arranged this song for a 6-string.
    Strings from lowest Bflat, Eflat, Aflat, Dflat, F, Bflat (I used string gauges from .52 to.13)
    
    Lowest line in tabs indicates when chord or single note is picked muted
    
    Some trickier parts are transcripted badly, but they sound almost the same as the originals...
    or do they?
    Any comments are welcome: generalvido@hotmail.com
    
    p=palm mute (muted picking)
    / or =slide
    
    
    intro 0.00 
    
    
    riff 1 0.18 Trapped in a gage....
    |--|------x2--------------------------------------------------|
    |--|----------------------------------------------------------|
    |--|----------------------------------------------------------|
    |--|----------------------------------------------------------|
    |--|5-6------5------5-5-------5-------5-5-------5-------5-5---|
    |00|3-4-0-00-3-0-00-3-3-00-00-3-00-00-3-3-00-00-3-00-00-3-3-00|
    |pp|----p-pp---p-pp-----pp-pp---pp-pp-----pp-pp---pp-pp-----pp|
    
    
    
    riff 2 0.30
    |-----------------------------------------|
    |-----------------------------------------|
    |-----------------------------------------|
    |3-4---5----3-4----5---3-4---5----3-4-----|
    |3-4---5----3-4----5---3-4---5----3-4-----|
    |1-2---3----1-2----3---1-2---3----1-2---00|
    |---------------------------------------pp|
    
    
    
    riff 1 0.36 Enchanted we fade...
    
    
    
    riff 3 0.49 Down...
    |--------------------------------------------------|
    |--------------------------------------------------|
    |6-5----6-5-5-6-5----6-5-5-6-5----6-5-5-6-5----6---|
    |--------------------------------------------------|
    |4-3----4-3-3-4-3----4-3-3-4-3----4-3-3-4-3----4---|
    |-0--000-0-0-0-0--000-0-0-0-0--000-0-0-0-0--000-000|
    |-p--ppp-p-p-p-p--ppp-p-p-p-p--ppp-p-p-p-p--ppp-ppp|
    
    
    
    riff 4 1.02 Of wavelenghts! 1.15 Transfixed...
    |------x4--------------------------------------------------|
    |----------------------------------------------------------|
    |----------------------------------------------------------|
    |----------------------------------------------------------|
    |5-6-4-44-5-4-44-5-6-44-44-5-44-44-5-6-44-44-5-44-44-5-6-44|
    |3-4-2-22-3-2-22-3-4-22-22-3-22-22-3-4-22-22-3-22-22-3-4-22|
    |----p-pp---p-pp-----pp-pp---pp-pp-----pp-pp---pp-pp-----pp|
    
    
    
    riff 5 1.28 Oceans of sevage...
    |------x2--------------------------------------------------|
    |----------------------------------------------------------|
    |----------------------------------------------------------|
    |----------------------------------------------------------|
    |3-4-2--2-3-2--2-3-3--2--2-3--2--2-3-3--2--2-3--2--2-3-3--2|
    |1-2-0--0-1-0--0-1-1--0--0-1--0--0-1-1--0--0-1--0--0-1-1--0|
    |----p--p---p--p------p--p----p--p------p--p----p--p------p|
    
    
    
    riff 6 1.42 solo
    |--------------|----x3-----------------|
    |--------------|-----------------------|
    |--------------|-----------------------|
    |--------------|-----------------------|
    |4-2---5-4-4---|5-4-4-4-55-4---5-4-4---|
    |3-2---3-2-2---|3-2-2-2-33-2---3-2-2---|
    |p-p---p-p-p---|p-p-p-p-pp-p---p-p-p---|
    
    
    
    riff 7 1.53 solo
    |-----x4----------------|----------|
    |-----------------------|----------|
    |-----------------------|----------|
    |-----------------------|----------|
    |5-4-4-4-5--4---5-4-4---|7-6-5-4---|
    |3-2-2-2-3--2---3-2-2---|5-4-3-2---|
    |--p-p-p----p-----p-p---|p-p-p-p---|
    |^-1st-time-with p-----------------| 
    
    
    riff 8 2.10 Engulfed!!
    |----|-----x3----------------|------------|
    |----|-----------------------|------------|
    |----|-----------------------|------------|
    |----|-----------------------|------------|
    |4---|5-4-4-4-5--4---5-4-4---|5-4-4-4-3---|
    |2---|3-2-2-2-3--2---3-2-2---|3-2-2-2-1---|
    |p---|p-p-p-p-p--p---p-p-p---|p-p-p-p-----|
    
    
    
    riff 9 2.24, 2.32 Gaged within... 
    |------------------|
    |------------------|
    |--3--------4------|
    |-2--------2-------|
    |4--------4--------|
    |---3-0------3--0--|
    
    
    
    riff 10 2.49 Stare blind... 
    |------------------|
    |------------------|
    |------------------|
    |3--------6--------|
    |1--5-2---4--5--2--|
    |---3-0------3--0--|
    
    Thats it..... Enjoy the tab... thanks to kuisma...
    
    generalvido
     

    Тональность:

    Нет текста!



    Назад
    Рекомендуем посмотреть другие песни исполнителя «Meshuggah»:

    • Комментарии Facebook ()
    • Комментарии ВКонтакте



    Добавить в Избранное Браузера
    Сохранить здесь Очистить


    x

    0


    +
    -

    +
    -

    -

    Авторизация





    Зарегистрироваться

    M

    Дата и время

    • 01:25:44
       

    Социальные ссылки


    Наши приложения

    • Muzbank App Play Market
    • Muzbank Amazon App