MUZBANK



A Most Complete Bank Of Music Information

МУЗЫКАЛЬНО-ИНФОРМАЦИОННЫЙ БАНК

Поиск по сайту







    MMeshuggah • Transfixition (аккорды и текст - chords & lyrics)


    251

    Print

    Видео «Transfixition (Meshuggah)»

    Видео клипы к песне подбираются автоматически сайтом youtube. Возможны некоторые несоответствия клипов песне.

    ↑ Спрятать рекламу ↑



    Download



     
    
    
    M E S H U G G A H 
                       T R A N S F I X I T I O N ( solo )
    
    This is the solo of transfixion ( the better version ) ( for a 7-string guitar ).
    Any comments will be taken at: generalvido@hotmail.com
    This tab was made posible by Emesto Schnack.
    
    T:RIGHT HAND TAB
    H:LEFT HAND TAB
    
    Dont give up this is a really hard tab. But it pays to learn it.
      H      T     T          T             T
    |------------|--------------------------------------|
    |------------|--------------------------------------|
    |-------11---|------------13--8-------------14------|
    |-7--9-------|-13--8--11---------14--9--11----------|
    |------------|--------------------------------------|
    |------------|--------------------------------------|
    |------------|--------------------------------------|
    
                 T       T   T  T            T           T   T
    |-------------------------|-------------------------------|
    |-------------------------|-------------------------------|
    |-9--11--13--8--10--16----|-16--10--13--------------------|
    |-------------------------|-------------17--11--13--18--17|
    |-----------------------16|-------------------------------|
    |-------------------------|-------------------------------|
    |-------------------------|-------------------------------|
    
               T       T   T         T           T           T
    |-------------------------|-----------------------------------|
    |-------------------------|-----------------------------19--13|
    |-------------------------|-----------------19--13--16--------|
    |-14--11--18--16--20--21--|-16--18--13--16--------------------|
    |-------------------------|-----------------------------------|
    |-------------------------|-----------------------------------|
    |-------------------------|-----------------------------------|
    
       T           T             T          T        H   T           T
    |-------------------------|-------------19--13------------------------|
    |-------------19--13------|-------------------------------------19--13|
    |-19--13--16--------------|-19--13--16----------16--19--13--16--------|
    |-------------------------|-------------------------------------------|
    |-------------------------|-------------------------------------------|
    |-------------------------|-------------------------------------------|
    |-------------------------|-------------------------------------------|
    
      T         T     H  T         T      H  T         T      H  T   H       T
    |-------------------------|-----------------------------------------------|
    |-------------------------|--------------------------------------9--10--12|
    |-------------------------|------------------------11--5------------------|
    |-------------------------|-------------------------------6--12-----------|
    |-----------9--3----------|----10--4--------------------------------------|
    |-------------------------|-----------6--11--5--6-------------------------|
    |-9--3--4---------4--10--4|-5---------------------------------------------|
    
      H       T          T     H
    |-------------------13--7---|
    |---------------------------|
    |-10--11--13--7--8---------8|
    |---------------------------|
    |---------------------------|
    |---------------------------|
    |---------------------------|
    
    Thats it. Hopefully you enjoyed the tab.
     

    Тональность:

    Нет текста!



    Назад
    Рекомендуем посмотреть другие песни исполнителя «Meshuggah»:

    • Комментарии Facebook ()
    • Комментарии ВКонтакте



    Добавить в Избранное Браузера
    Сохранить здесь Очистить


    x

    0


    +
    -

    +
    -

    -

    Авторизация





    Зарегистрироваться

    M

    Дата и время

    • 09:10:21
       

    Социальные ссылки


    Наши приложения

    • Muzbank App Play Market
    • Muzbank Amazon App