MUZBANK



A Most Complete Bank Of Music Information

МУЗЫКАЛЬНО-ИНФОРМАЦИОННЫЙ БАНК

Поиск по сайту







    MMest • Another Day (аккорды и текст - chords & lyrics)


    231

    Print

    Видео «Another Day (Mest)»

    Видео клипы к песне подбираются автоматически сайтом youtube. Возможны некоторые несоответствия клипов песне.

    ↑ Спрятать рекламу ↑



    Download



     
    
    Verse: 
    G|---------------| 
    D|--22-11--------| Repeat 4x’s 
    A|---------44-22-| 
    E|---------------| 
    Come in at about 12 sec at "I Opened every door…" 
    
    Pre-Chorus: ("It’s Just another day…") 
    G|-------------------------------------------| 
    D|---------------------22-11-----------------| 
    A|-----------0000-2222-------44-22-0000-2222-| 
    E|--00000024---------------------------------| 
    
    Chorus: ("Times Change…") 
    G|-------------| 
    D|-22----------| Repeat 4x’s 
    A|----00-44-22-| 
    E|-------------| 
    
    Mini Bridge Thing: 
    G|-------------------| 
    D|-------------------| 
    A|-000000-4-22222222-| 
    E|-------4-----------| 
    
    Repeat: Verse 8x’s, Prechorus, Chorus 4x’s, Mini Bridge Thing 
    
    Actual Bridge: ("You say there’s…") 
    G|---------------------------------------------------------------------------| 
    D|--------------------22222222----------------------------22222222-----------| 
    A|-----------00000000----------22222220----------00000000----------22222222--| 
    E|--44444444----------------------------44444444-----------------------------| 
    
    Then Play: (4x’s during guitar break) 
    G|--------------| 
    D|--22----------| 
    A|-----00-44-22-| 
    E|--------------| 
    
    Play Chorus 2x’s softly then 6x’s regular 
    
    End With: 
    G|---------------------| 
    D|---------------------| 
    A|-000000-4-22222222---| 
    E|-------4-----------0-|
    

    Тональность:

    Нет текста!



    Назад
    Рекомендуем посмотреть другие песни исполнителя «Mest»:

    • Комментарии Facebook ()
    • Комментарии ВКонтакте



    Добавить в Избранное Браузера
    Сохранить здесь Очистить


    x

    0


    +
    -

    +
    -

    -

    Авторизация





    Зарегистрироваться

    M

    Дата и время

    • 19:11:25
       

    Социальные ссылки


    Наши приложения

    • Muzbank App Play Market
    • Muzbank Amazon App