MUZBANK



A Most Complete Bank Of Music Information

МУЗЫКАЛЬНО-ИНФОРМАЦИОННЫЙ БАНК

Поиск по сайту







    MMest • Long Days Long Nights (аккорды и текст - chords & lyrics)


    278

    Print

    Видео «Long Days Long Nights (Mest)»

    Видео клипы к песне подбираются автоматически сайтом youtube. Возможны некоторые несоответствия клипов песне.

    ↑ Спрятать рекламу ↑



    Download



     
    
    
    Intro
    g-----------------------------------
    d-----------------------------------
    a-2---------------------------------
    e---------2-------0-------4----2----
    
    Verse x2
    g--------------------------------------
    d--------------------------------------
    a-22222222-----------------------------
    e---------22222222-00000000-44----22---
    
    After every verse and intro
    g-------------------
    d-------------------
    a-------------------
    e-00000000-22222222-
    
    Chorus x2
    g-------------------------------------
    d-------------------------------------
    a-------------------------------------
    e-44444444-22222222-00000000-222222xx-
    
    Bass Solo x4
    
    g-------------
    d--------22-1-
    a-2222-44-----
    e-------------
    after bass solo
    
    g-------------------------------------
    d-------------------------------------
    a-------------------------------------
    e-44444444-22222222-00000000-22222222-
    
    On and on and on.......
    g-------------------------------------
    d-------------------------------------
    a-22222222----------------------------
    e----------22222222-00000000-22222222-
    
    Last two notes
    g----
    d----
    a----
    e-22-
    
    
    
    Structure
    
    Intro
    Verse x2
    Chorus x2
    Verse x2
    Chorus x2
    On and on......
    Bass Solo x4
    (after bass solo)
    Chorus x2
    On and on.......
    Bass Solo x2
    Last two notes
     

    Тональность:

    Нет текста!



    Назад
    Рекомендуем посмотреть другие песни исполнителя «Mest»:

    • Комментарии Facebook ()
    • Комментарии ВКонтакте



    Добавить в Избранное Браузера
    Сохранить здесь Очистить


    x

    0


    +
    -

    +
    -

    -

    Авторизация





    Зарегистрироваться

    M

    Дата и время

    • 16:48:50
       

    Социальные ссылки


    Наши приложения

    • Muzbank App Play Market
    • Muzbank Amazon App