MUZBANK



A Most Complete Bank Of Music Information

МУЗЫКАЛЬНО-ИНФОРМАЦИОННЫЙ БАНК

Поиск по сайту







    MMest • Slow Motion (аккорды и текст - chords & lyrics)


    278

    Print

    Видео «Slow Motion (Mest)»

    Видео клипы к песне подбираются автоматически сайтом youtube. Возможны некоторые несоответствия клипов песне.

    ↑ Спрятать рекламу ↑



    Download



     
    
    
    e-------------------------------
    b------------999975-------------
    g---7/9--9x9---------696--8-11-8     x2
    d-------------------7----9------
    a-------------------------------
    e-------------------------------
    
    then
    e---------------------------
    b---99-99-77-77-55-55-77-77-
    g---99-99-88-88-66-66-88-88-    x2
    d---------------------------
    a---------------------------
    e---------------------------
    
    then
    e----------------------
    b---9--9-7--7-5--5-7--7
    g----9----8----6----8--     x2
    d-----9----9----7----9-
    a----------------------
    e----------------------
    
    then
    e-------------------------------
    b-------------------------------
    g---9---------------------------    x2
    d---9  x16-6------7------9------
    a---7------6  x16-7  x16-9  16x-
    e----------4------5------7------
    
    then
    e-------------------
    b---9-9-7-7-5-5-7-7-
    g---9-9-8-8-6-6-8-8-    x4
    d-------------------
    a-------------------
    e-------------------
    
    then
    e---------------------------------------------
    b---------------------------------------------
    g---9-----------------------------------------
    d---9  x16-6-66-66-66-77-77-77-77-99-99-99-99-
    a---7------6-66-66-66-77-77-77-77-99-99-99-99-
    e----------4-44-44-44-55-55-55-55-77-77-77-77-scrape
    
        pm
    then
    e-----------------------------------------------
    b-----------------------------------------------
    g---9-------------------------------------------
    d---9  x16-6------7------9-----xxxxxxxxxxxxxxxx-
    a---7------6  x16-7  x16-9  x8-xxxxxxxxxxxxxxxx-
    e----------4------5------7-----xxxxxxxxxxxxxxxx-
    
    then
    e-------------------------------
    b-------------------------------
    g---9---------------------------
    d---9  x16-6------7------9------
    a---7------6  x16-7  x16-9  x16-
    e----------4------5------7------
    
    then
    e-------------------------------------
    b-------------------------------------
    g---9-9-xx------------------11-11-9-8-    x4
    d---9-9-xx--6-6-xx--7-7-xx--11-11-9-8-
    a---7-7-xx--6-6-xx--7-7-xx--9--9--7-6-
    e-----------4-4-xx--5-5-xx------------    let last chord of last riff ring out.
    then after bass part,
    
    e-------------------             e-------------
    b---9-9-7-7-5-5-7-7-             b---9-9-7-7---
    g---9-9-8-8-6-6-8-8-   x1   then g---9-9-8-8---
    d-------------------             d-----------6-
    a-------------------             a-----------6-
    e-------------------             e-----------4-
    
    then
    e-----------------------------------------
    b-----------------------------------------
    g---7-77-7-xx-----------------------------    x4
    d---7-77-7-xx-6-66-6-xx-7-77-7xx-7-77-7xx-
    a---9-99-9-xx-6-66-6-xx-7-77-7xx-7-77-7xx-
    e-------------4-44-4-xx-5-55-5xx-9-99-9xx-
    
    then
    e---------------------------
    b---------------------------
    g---9-----------------------    x3
    d---9  x8-6-----7-----9-----
    a---7-----6  x8-7  x8-9  x8-
    e---------4-----5-----7-----
    
    then
    e--------------------------------
    b--------------------------------
    g---7--------------------------9-
    d---7  x8-6-----7--777777-9xxxx9-
    a---9-----6  x8-7--777777-9xxxx7-
    e---------4-----5--555555-7xxxx--
                       pm....
    
    this is my first tab ever so tell me what you think.
    purplefuzznuts@excite.com
     

    Тональность:

    Нет текста!



    Назад
    Рекомендуем посмотреть другие песни исполнителя «Mest»:

    • Комментарии Facebook ()
    • Комментарии ВКонтакте



    Добавить в Избранное Браузера
    Сохранить здесь Очистить


    x

    0


    +
    -

    +
    -

    -

    Авторизация





    Зарегистрироваться

    M

    Дата и время

    • 11:25:52
       

    Социальные ссылки


    Наши приложения

    • Muzbank App Play Market
    • Muzbank Amazon App