MUZBANK



A Most Complete Bank Of Music Information

МУЗЫКАЛЬНО-ИНФОРМАЦИОННЫЙ БАНК

Поиск по сайту







    MMest • Without You (аккорды и текст - chords & lyrics)


    258

    Print

    Видео «Without You (Mest)»

    Видео клипы к песне подбираются автоматически сайтом youtube. Возможны некоторые несоответствия клипов песне.

    ↑ Спрятать рекламу ↑



    Download



     
    
    
    tabbed by: tessa reyes
    email: nofxchick934@hotmail.com
    
    tuning: standard EADGBe
    
    intro: acoustic or clean
    
    guitar 1
    e|--------------|
    B|--------------|
    G|--------------|
    D|--5--3--5--3--|
    A|--5--3--5--3--|
    E|--3--1--7--5--|
    
    guitar 2
    e|-----------|
    B|------5----|
    G|----5---5--|
    D|--5--------|
    A|-----------|
    E|-----------|
    
    part inbetween intro and verse: distorted
    e|--------|
    B|--------|
    G|--------|
    D|--3--5--|
    A|--3--5--|  
    E|--1--3--|
    
    verse:
    e|--------------|
    B|--------------|
    G|--5-----------|
    D|--5--7--3--5--|
    A|--3--7--3--5--|  
    E|-----5--1--3--|
    
    chorus:
    e|--------------|
    B|--------------|
    G|--5-----------|
    D|--5--3--7--5--|
    A|--3--3--7--5--|  
    E|-----1--5--3--|
    verse
    
    chorus x2
    
    bridge: palm muted
    e|--------|
    B|--------|
    G|--------|
    D|--3--5--|
    A|--3--5--|  
    E|--1--3--|
    
    bridge solo:
    e|---------------------|      |--------------|          
    B|---------------------|      |--------------| 
    G|---------------------|      |--------------| 
    D|---------------------|      |-----------5--| 
    A|--7--5--7--5--3------|  x3  |--2--3--5-----| 
    E|------------------3--|      |--------------| 
    
    last chorus riff:
    e|--------3-----|
    B|--------------|
    G|-----5-----5--|
    D|--5-----------| 
    A|--------------|
    E|--------------|
    
    chorus
    
    enjoy!
     

    Тональность:

    Нет текста!



    Назад
    Рекомендуем посмотреть другие песни исполнителя «Mest»:

    • Комментарии Facebook ()
    • Комментарии ВКонтакте



    Добавить в Избранное Браузера
    Сохранить здесь Очистить


    x

    0


    +
    -

    +
    -

    -

    Авторизация





    Зарегистрироваться

    M

    Дата и время

    • 19:43:53
       

    Социальные ссылки


    Наши приложения

    • Muzbank App Play Market
    • Muzbank Amazon App