MUZBANK



A Most Complete Bank Of Music Information

МУЗЫКАЛЬНО-ИНФОРМАЦИОННЫЙ БАНК

Поиск по сайту







    MMest • Your Promise (аккорды и текст - chords & lyrics)


    243

    Print

    Видео «Your Promise (Mest)»

    Видео клипы к песне подбираются автоматически сайтом youtube. Возможны некоторые несоответствия клипов песне.

    ↑ Спрятать рекламу ↑



    Download


     
    
    
    -----------------------------------------------------------------------------
    			     Your Promise-Mest
    -----------------------------------------------------------------------------
    Tabbed by: Rob Lewis
    Email:AtarisRocker072@aol.com
    Tuning: standard
    
    
    piano intro:
    e|----------------------------------------------------|
    B|----------------------------------------------------|
    G|----------12-----------10-----------12-----------12-|
    D|-------10-----------10-----------10-----------10----|
    A|-12-14--------12-14--------10-14--------10-14-------|
    E|----------------------------------------------------|
    
    guitar 1 intro:
    e|-------------------------------------|
    B|-------------------------------------|
    G|-54545454-7-5-4-5-9-5-4-12-5-4-7-4-5-|
    D|-xxxxxxxx-x-x-x-x-x-x-x-x--x-x-x-x-x-|
    A|-32323232-5-3-2-3-7-3-2-10-3-2-5-2-3-|
    E|-------------------------------------|
    
    guitar 2 intro:
    e|-------------------------|
    B|-------------------------|
    G|-------------5-----------|
    D|-7-----3-----5-x16-5-----|
    A|-7-x16-3-x16-3-----5-x16-|
    E|-5-----1-----------3-----|
    
    verse 1:(when palm muting comes in)
    e|-------------------------|
    B|-------------------------|
    G|-4-----5-----4-----5-----|
    D|-4-x16-5-x16-4-x16-5-x16-|
    A|-2-----3-----2-----3-----|
    E|-------------------------|
    pm.........................
    
    pre-chorus:
    e|---------------------------------|
    B|---------------------------------|
    G|---------------------------------|
    D|-55-555-555-555-555-555-55555555-|
    A|-55-555-555-555-555-555-55555555-|
    E|-33-333-333-333-333-333-33333333-|
    
    chorus:
    e|-------------------------|
    B|-------------------------|
    G|-------------5-----------|
    D|-7-----3-----5-x16-5-----|
    A|-7-x16-3-x16-3-----5-x16-|
    E|-5-----1-----------3-----|
    
    (intro)
    (verse 2 is the same but with palm muting the whole time)
    (pre-chorus x2)
    (chorus x2)
    
    bridge:
    e|-------------------------------------------------|
    B|-------------------------------------------------|
    G|-5-----------------9-----5-----------------5-----|
    D|-5-x16-5-----7-----9-x16-5-x16-5-----7-----5-x16-|
    A|-3-----5-x16-7-x16-7-----3-----5-x16-7-x16-3-----|
    E|-------3-----5-----------------3-----5-----------|
    
    (intro:but listen to when the distortion is on and off)
    (chorus x2)
    
    guitar 1 plays this in the last choruses:
    e|-12-13-12-15--------12------13------12------15-|
    B|-13-13-13-13------13------13------13------13---|
    G|-14-14-14-14----14------14------14------14-----|
    D|-----------------------------------------------|
    A|-----------------------------------------------|
    E|-----------------------------------------------|
    
    outro:
    e|----------15-----------13-----------15-----------15--12-|
    B|-------13-----------13-----------13-----------13-----13-|
    G|-14-16--------14-16--------12-16--------12-16--------14-|
    D|--------------------------------------------------------|
    A|--------------------------------------------------------|
    E|--------------------------------------------------------|
    
    | /  slide up
    |   slide down
    | h  hammer-on
    | p  pull-off
    | ~  vibrato
    | +  harmonic
    | x  Mute note
    =============================================================================
     

    Тональность:

    Нет текста!



    Назад
    Рекомендуем посмотреть другие песни исполнителя «Mest»:

    • Комментарии Facebook ()
    • Комментарии ВКонтакте



    Добавить в Избранное Браузера
    Сохранить здесь Очистить


    x

    0


    +
    -

    +
    -

    -

    Авторизация





    Зарегистрироваться

    M

    Дата и время

    • 09:09:19
       

    Социальные ссылки


    Наши приложения

    • Muzbank App Play Market
    • Muzbank Amazon App