MUZBANK



A Most Complete Bank Of Music Information

МУЗЫКАЛЬНО-ИНФОРМАЦИОННЫЙ БАНК

Поиск по сайту







    MMetallica • Black Night (аккорды и текст - chords & lyrics)


    301

    Print

    Видео «Black Night (Metallica)»

    Видео клипы к песне подбираются автоматически сайтом youtube. Возможны некоторые несоответствия клипов песне.

    ↑ Спрятать рекламу ↑



    Download


    Metallica
    Black Night
    written by Deep Purple
    as performed Live in Austin Texas 2/3/89 
    and other Justice shows
    
    tab by Bass Guitar
    
    
    G-----------------------
    D-------2-----0----2---0
    A--///----0-2--------2--
    E--///0----------0------
    
    keep going
     
    
    Gtr I (E A D G B E)
    
      Medium Shuffle Q=134(8=s8)
     4/4
      Gtr I
      E  E  E  E  E  E   E  E  E  E  E  E  E  Q Q  Q  Q Q
    |------------------|-----------------------------------|
    |------------------|-----------------------------------|
    |------------------|-----------------------------------|
    |----5-------------|----5-----7--5-------------5-------|
    |-7-----7--5-----5-|-7-----7--------7--5--7-------7----|
    |-------------7----|-----------------------------------|
    
    
      E E E E E E E E   E E E E E Q  Q    Q  Q
    |-----------------|-----------------|------|----|
    |-----------------|-----------------|------|----|
    |-----------------|-----------------|------|----|
    |---5-----------5-|---7-5-----------|-5----|----|
    |-7---7-5---5-7---|-7-----7-5-7-----|----7-|----|
    |---------7-------|-----------------|------|----|
    
    
      E E E E E E E E   E E E E E E E E   E E E E E E E E
    |-----------------|-----------------|-----------------|----|
    |-----------------|-----------------|-----------------|----|
    |-----------------|-----------------|-----------------|----|
    |-----------------|-----------------|-----------------|----|
    |-5-7-------------|-5-7-------------|-5-7-------------|----|
    |-----0-0-0-0-0-0-|-----0-0-0-0-0-0-|-----0-0-0-0-0-0-|----|
    
    
      E E E E E E E E   E E E E E E E E   E E E E E E E E
    |-----------------|-----------------|-----------------|----|
    |-----------------|-----------------|-----------------|----|
    |-----------------|-----------------|-----------------|----|
    |-----------------|-----------------|-----------------|----|
    |-5-7-------------|-5-7-------------|-5-7-------------|----|
    |-----0-0-0-0-0-0-|-----0-0-0-0-0-0-|-----0-0-0-0-0-0-|----|
    
    
      E  E  E E E E  E  E  E E E E E E  E  E  E  E  E E E E E E
    |------------------------------------------------------------|
    |------------------------------------------------------------|
    |------------------------------------------------------------|
    |-----------------------------------------------7p5-7-5-7-5--|
    |-5h=7--5h7-5----5-----5-7s9-9s7-5--7--5---------------------|
    |-------------7-----7---------------------7--5---------------|
    
    
      E E E E E E  E
    |----------------|
    |----------------|
    |----------------|
    |-----5-----5--3-|
    |-5h7---5--------|
    |-------3-3------|
    
    
                             ~~                                   ~~
        E  E  E  E  E  E  E  E   E      E  E  E      E  E  E      E   E
    |-------------------------------------12-----------12--------12--12----|
    |----------------------------------12-----------12----15b17--12--12----|
    |--------12----12-14-12-12--14b16--------14b16-------------------------|
    |-----12----14---------------------------------------------------------|
    |-/14------------------------------------------------------------------|
    |----------------------------------------------------------------------|
    
                                            \1/  \1/  \1/  \1/  \1/  \1/  \1/
       E E  E  E  E E E  E E E E   E E E E  E    E    E    E    E    E    E
    |-------------------------------------------------------------------------|
    |-------------------------------------------------------------------------|
    |-------------------------------------------------------------------------|
    |-------7--5------5------5-3-------3--------------------------------------|
    |-------------6-7--------------4-5---2--2----2----2----2----2----2----2---|
    |-/5-5---------------3-3--------------------------------------------------|
    
    
               ~~                    ~~
        E  E   E     E      E E   E  E     E      E   E   E    E  E   E  E  E  E  E  E  E
    |-------------------------0-----15----14b15--14--15--14\-----20--17-18-19-20-18-17-15-|
    |---------------13b15r=13-0-----15-----------15-----------/9-----17-------------------|
    |-/16-12--12--------------------------------------------------------------------------|
    |----------------------------14-------------------------------------------------------|
    |-------------------------------------------------------------------------------------|
    |-------------------------------------------------------------------------------------|
    
    
                                                                              ~~
       E  E  E  E  E  E  E  E  E  E  E  E  E  E  E   E  E  E  E  E  E   E  E  E     E E
    |-15-16-15-----------------------------------------------------------------------------|
    |----------17p15----15-17--------------------------------------------------------------|
    |----------------16-------16-15-14-12-14-15-14--12-------------14-----12-14------------|
    |--------------------------------------------------14-12----14-----14----------/5-0----|
    |--------------------------------------------------------14----------------------------|
    |--------------------------------------------------------------------------------------|
    
    
           \1/   \1/   \1/
                             ~~                                                   ~~
       E   E     E     E     E      E  E  E       E  E  E  E  E  E E  E  E  E  E  E   E
    |--------------------------------------------------------------------------------------|
    |-17--17----17----17----17-------------------------------------------------------------|
    |------------------------------15-18-15b16---14-12-14-14-12---------14----12-12--12\---|
    |----------------------------------------------------------------14----15--------------|
    |--------------------------------------------------------------------------------------|
    |------------------------------------------------------------0-0-----------------------|
    
    
        E  E  E  E  E  E  E  E  E  E  E  E  E  E  E  E  E  E  E  E  E  E  E  E  E
    |-----------------------------------------------------------------------------|
    |-----------------------------------------------------------------------------|
    |-/12-------------------------------------------------------------------------|
    |-----14-14-12-14-14-12----14-12----14-12----14----12-14-12-------------------|
    |-----------------------14-------14-------14----14----------14-12-14-12-------|
    |-----------------------------------------------------------------------14-12-|
    
    
    

    Тональность:

    Нет текста!



    Назад
    Рекомендуем посмотреть другие песни исполнителя «Metallica»:

    • Комментарии Facebook ()
    • Комментарии ВКонтакте



    Добавить в Избранное Браузера
    Сохранить здесь Очистить


    x

    0


    +
    -

    +
    -

    -

    Авторизация





    Зарегистрироваться

    M

    Дата и время

    • 21:13:25
       

    Социальные ссылки


    Наши приложения

    • Muzbank App Play Market
    • Muzbank Amazon App