MUZBANK



A Most Complete Bank Of Music Information

МУЗЫКАЛЬНО-ИНФОРМАЦИОННЫЙ БАНК

Поиск по сайту







    MMetallica • Blues Jam (аккорды и текст - chords & lyrics)


    313

    Print

    Видео «Blues Jam (Metallica)»

    Видео клипы к песне подбираются автоматически сайтом youtube. Возможны некоторые несоответствия клипов песне.

    ↑ Спрятать рекламу ↑



    Download



    Bass:
    1)
    G|---------------------|
    D|---------------------|  4 times
    A|-//------------------|
    E|-//5-5-10-10-8-8-5-5-|
    
    2)
    G|-------------------|
    D|-------------------|
    A|-5-5-10-10-8-8-5-5-|  2 times; then riff 1
    E|-------------------|
    
    3)
    G|------------------------------|
    D|-------9-7------------7-5-----|
    A|-7-7-7-----9-7--5-5-5-----7-5-|
    E|------------------------------|
    
    4)
    G|-----------------------5-|
    D|-------------------5-7---|
    A|---------5-5-6-6-7-------|
    E|-5-5-8-8-----------------|
    
    Guitar:
    1)
    e|------------------------------|
    B|------------------------------|
    G|-----------7-5------------7-5-|
    D|-7p5-------7-5--7p5-------7-5-|
    A|-----7--------------7---------|
    E|-------5-5------------5-5-----|
    
    2)
    e|------------------------------|
    B|------------------------------|
    G|-7p5-------7-5--7p5-------7-5-|
    D|-----7--------------7---------|
    A|-------5-5------------5-5-----|
    E|------------------------------|
    
    3)
    e|-------------------------------------|
    B|-----10-8-10p8h10p8------8-6-8p6h8p6-|
    G|------9-7----------------7-5---------|
    D|-------------------------------------|
    A|-7-7-----------------5-5-------------|
    E|-------------------------------------|
    
    4)
    e|-------------------------|
    B|-------------------------|
    G|-----------------------5-|
    D|-------------------5-7---|
    A|---------5-5-6-6-7-------|
    E|-5-5-8-8-----------------|
    
    Then Kirk goes into soloing, which follows the basic blues
    pattern, start in
    A, then D, A, E, D, A.
    

    Тональность:

    Нет текста!



    Назад
    Рекомендуем посмотреть другие песни исполнителя «Metallica»:

    • Комментарии Facebook ()
    • Комментарии ВКонтакте



    Добавить в Избранное Браузера
    Сохранить здесь Очистить


    x

    0


    +
    -

    +
    -

    -

    Авторизация





    Зарегистрироваться

    M

    Дата и время

    • 19:41:37
       

    Социальные ссылки


    Наши приложения

    • Muzbank App Play Market
    • Muzbank Amazon App