MUZBANK



A Most Complete Bank Of Music Information

МУЗЫКАЛЬНО-ИНФОРМАЦИОННЫЙ БАНК

Поиск по сайту







    MMetallica • Drums enter (аккорды и текст - chords & lyrics)


    300

    Print

    Видео «Drums enter (Metallica)»

    Видео клипы к песне подбираются автоматически сайтом youtube. Возможны некоторые несоответствия клипов песне.

    ↑ Спрятать рекламу ↑



    Download


    G|----------------|---------------|
    D|----------------|---------------|
    A|-----2-0--------|------5----5-7-|
    E|-0-3-----3-3-5/-|-/(7)----7-----|
    
    G|------------------|---------------------|
    D|---------5---5-7-b1/2-r-b/12-r-b1/2-r-5-|
    A|---5-5-7---7------|---------------------|
    E|-0----------------|---------------------|
    
    G|-------7-b1-r---|------------------|-----14-b1-14-14-|
    D|-----5--------5-|---5-7-b1-r-5---5-|-----------------|
    A|---x------------|-7------------7---|-----------------|
    E|-0--------------|------------------|-0---------------|
    
    G|-14-b1-14-14-14-b1-14-14-|-----12---11-|
    D|-------------------------|--------0----|
    A|-------------------------|-------------|
    E|-------------------------|-0-0---------|
    
    G|-12---11-12-12-12-11---|
    D|----0----------------0-|
    A|-----------------------|
    E|-----------------------|
    
    G|-------------------------------|----------------------|
    D|-17p14-19p14-19p14-21p14-19p14-|-17p14-19p14-21p14-17-|
    A|-------------------------------|----------------------|
    E|-------------------------------|----------------------|
    
    G|-16-12-16-12-16-|-12-16-12-16-16-|
    D|----------------|----------------|
    A|----------------|----------------|
    E|----------------|----------------|
    
    G|-16p12----12-16p12----12-16p12-12-12-12-12-14-|
    D|-------14----------14-------------------------|
    A|----------------------------------------------|
    E|----------------------------------------------|
    
    G|-b1-r-12----12-b1/2----|-------------------------|
    D|---------14---------14-|-----21-17-17----20-b1/2-|
    A|-----------------------|--------------19---------|
    E|-----------------------|-0-0---------------------|
    
    G|---------------------R--------|
    D|-20-20-b1/2-20-19-17----19-b1-|
    A|------------------------------|
    E|------------------------------|
    
    G|-19----------19---------19---------19-|
    D|----19-b1/2-----19-b1/2----19-b1/2----|
    A|--------------------------------------|
    E|--------------------------------------|
    
    G|---------19-19-19-b1---r----|-------------|
    D|-19-b1/2-----------------17-|-------------|
    A|----------------------------|-------------|
    E|----------------------------|-0-0-0-0-0-0-|
    
    G|-----------|-------------|
    D|-----------|-------2-0---|
    A|-----------|-----------3-|
    E|-0-0-0-0-0-|-0-0-0-------|
    
    G|------------|-------------|------------|
    D|------------|-------5-----|-5-----5/-0-|
    A|-2-1-0------|---5-7---5-7-|---5-7------|
    E|-------3--0-|-0-----------|------------|
    
    G|-15-14-12-14p12----12-15-14-12-|
    D|----------------14-------------|
    A|-------------------------------|
    E|-------------------------------|
    
    G|-14p12----12-15-14-12-14p12----|
    D|-------14-------------------14-|
    A|-------------------------------|
    E|-------------------------------|
    
    G|-12-------------------------------|
    D|----14-12-14p12----12-------------|
    A|----------------14----14-12-13-14-|
    E|----------------------------------|
    
    G|----------------------|-----------------|
    D|-12-14p12-12----12-12-|-----------------|
    A|-------------14-------|-----------------|
    E|----------------------|-0-0-0-0-0-0-0-0-|
    
    G|-----------------|-------------|
    D|---------------2-|-------------|
    A|-----------2-----|-------------|
    E|-(0)-0-0-0---0---|-0-0-0-0-0-0-|
    
    G|-------------|-12----11----------11-|
    D|-------14-14-|-11-11----11-14-11----|
    A|-------------|-0--------------------|
    E|-0-0-0-------|----------------------|
    
    G|-12----14-14-12---|--------------|
    D|----11------------|------------6-|
    A|----------------9-|-7-0-9-10-0---|
    E|------------------|--------------|
    
    G|--------------------|----------------|
    D|-6-6-6-10-7-7-7-7-7-|-8-11-9-9-12-10-|
    A|--------------------|----------------|
    E|--------------------|----------------|
    
    G|----------------------------|
    D|-10-11-11-14-14-11-11-14-12-|
    A|----------------------------|
    E|----------------------------|
    
    G|------------------------------------------|
    D|-(12)-15-12-14-16-14-16-15-17-17-16-17-19-|
    A|------------------------------------------|
    E|------------------------------------------|
    
    G|-------16-15-16-17-19-19-b1-|
    D|-17-19----------0-----------|
    A|----------------------------|
    E|----------------------------|
    
    G|-(19)-19-19-19-19-|-19-b1-r-16----16-19-16-|
    D|------------------|------------17----------|
    A|------------------|------------------------|
    E|------------------|------------------------|
    
    G|-19p16----16h19p16----16h19p16----16h19p16----|
    D|-------17----------17----------17----------17-|
    A|----------------------------------------------|
    E|----------------------------------------------|
    
    G|-16h19---19-b1-r-16----|
    D|--------------------17-|
    A|-----------------------|
    E|-----------------------|
    
    G|-16----------------------|--------------------------|
    D|----17----17----------17-|-19-b1/2-r-b1/2-r-b1/2-19-|
    A|-------19----19-17-19----|--------------------------|
    E|-------------------------|--------------------------|
    
    G|-------------|---------|----------------|
    D|-------------|---------|----------------|
    A|-------------|---------|---------5-b1-r-|
    E|-0-0-0-0-0-0-|-0-0-0-0-|-0-0-0-0--------|
    
    G|---------------|-----------------|
    D|---------------|-----------------|
    A|-b1-r-b1-r-2---|---------0-----0-|
    E|-------------0-|-0-0-0-0---3-0---|
    
    G|-----------------|-----------------|
    D|-----------------|-----------------|
    A|-0-0-4h5-0-4h5-0-|-4h5-0-4h5-0-4h5-|
    E|-----------------|-----------------|
    
    G|-----------------|-----------|
    D|-----------------|-----5-5-5-|
    A|-0-0-0-0-0-0-0-0-|-----------|
    E|-----------------|-0-0-------|
    
    G|---------------|-12(19)-10(17)-9(16)-|
    D|-(5)-5-------5-|---------------------|
    A|---------------|---------------------|
    E|-------4-4-4---|---------------------|
    
    G|-9(16)---------------------9(16)-|
    D|-------10(17)-9(16)-10(17)-------|
    A|---------------------------------|
    E|---------------------------------|
    
    G|-----------------------------------------------|
    D|-10(17)-9(16)---------------------9(16)-10(17)-|
    A|--------------10(17)-9(16)-10(17)--------------|
    E|-----------------------------------------------|
    
    G|------------------------|
    D|----10(17)-9(16)--------|
    A|-19--------------12(19)-|
    E|------------------------|
    
    G|---------|------------|------|end by sliding over the strings
    D|---------|---------16-|-(16)-|and then tapping the open D and
    A|---------|---14-14-14-|-(14)-|G strings against your pickup.
    E|-0-0-0-0-|-0-0--0--0--|-(0)--|
    

    Тональность:

    Нет текста!



    Назад
    Рекомендуем посмотреть другие песни исполнителя «Metallica»:

    • Комментарии Facebook ()
    • Комментарии ВКонтакте



    Добавить в Избранное Браузера
    Сохранить здесь Очистить


    x

    0


    +
    -

    +
    -

    -

    Авторизация





    Зарегистрироваться

    M

    Дата и время

    • 02:08:41
       

    Социальные ссылки


    Наши приложения

    • Muzbank App Play Market
    • Muzbank Amazon App