MUZBANK



A Most Complete Bank Of Music Information

МУЗЫКАЛЬНО-ИНФОРМАЦИОННЫЙ БАНК

Поиск по сайту







    MMetallica • Enter Sandman (аккорды и текст - chords & lyrics)


    1206

    Print

    Видео «Enter Sandman (Metallica)»

    Видео клипы к песне подбираются автоматически сайтом youtube. Возможны некоторые несоответствия клипов песне.

    ↑ Спрятать рекламу ↑



    Download



    intro
    1)
    D|-------5-------------5-----|
    A|----7--------7----7--------|
    E|-0-------6-5---0-------6-5-|
    clean (yes, there are other ways to play this riff, but this is
    how James plays it on "A Year and a half...pt1"
    
    2a)
    D|----------------------------------|
    A|-2--------------7---------------7-|
    E|-0--0-0-0-0-0-0---0-0-0-0-0-0-0---|
    distorted
    
    2b)
    D|------------------|
    A|-----7----------3-|
    E|-0-0---6--0-0-0-1-|
    
    2c)
    D|-------------------|
    A|-----7-----------3-|
    E|-0-0---6-5-0-0-0-1-|
    
    3)Main riff
    D|---------------          ------------------------|
    A|-2--2-/7------- 3 times  ----5-----4-----4-5-4-2-|
    E|-0--0----6--5~~          -0--3--0--2--0--2-3-2-0-|
    
    4)
    D|-----------------|
    A|-2-------------3-|  twice then end with riff above^
    E|-0-0-0-0-0-0-0-1-|
    Say your prayers...
    
    5)
    G|-------2--------------2-------|
    D|----4--------4-----4--------4-|
    A|---------3-2------------3-2---|
    E|-2--------------2-------------|
    Sleep with one eye...
    
    6)
    D|-----5--4-----5--4-----5--4----|
    A|--4--3--2--4--3--2--4--3--2--2-|
    E|-/2--------2--------2--------0-|
    Exit light
    
    
    
    
    
    Say your prayers little one 
    Don't forget my son 
    To include everyone 
    I tuck you in 
    Warm within 
    Keep you free from sin 
    'Til the sandman he comes 
    
    Sleep with one eye open 
    Gripping your pillow tight 
    
    Exit light 
    Enter night 
    Take my hand 
    We're off to never never-land 
    
    Something's wrong, shut the light 
    Heavy thoughts tonight 
    And they aren't of snow white 
    Dreams of war 
    Dreams of lies 
    Dreams of dragons fire 
    And of things that will bite, yeah 
    
    Sleep with one eye open 
    Grippin' your pillow tight 
    
    Exit light 
    Enter night 
    Take my hand 
    We're off to never never-land 
    
    (Whisper) 
    Now I lay me down to sleep (x2) 
    Pray the lord my soul to keep (x2) 
    And if I die before I wake (x2) 
    Pray the lord my soul to take (x2) 
    
    Hush little baby don't say a word 
    And never mind that noise you heard 
    It's just the beast under your bed 
    In your closet in your head 
    
    Exit light 
    Enter night 
    Grain of sand 
    
    Exit light 
    Enter night 
    Take my hand 
    We're off to never never-land 
    
    We're off to never never-land 
    
    Take my hand 
    We're off to never never-land 
    Take my hand 
    We're off to never never-land 
    
    We're off to never never-land

    Тональность:

    Нет текста!



    Назад
    Рекомендуем посмотреть другие песни исполнителя «Metallica»:

    • Комментарии Facebook ()
    • Комментарии ВКонтакте



    Добавить в Избранное Браузера
    Сохранить здесь Очистить


    x

    0


    +
    -

    +
    -

    -

    Авторизация





    Зарегистрироваться

    M

    Дата и время

    • 17:00:49
       

    Социальные ссылки


    Наши приложения

    • Muzbank App Play Market
    • Muzbank Amazon App