MUZBANK



A Most Complete Bank Of Music Information

МУЗЫКАЛЬНО-ИНФОРМАЦИОННЫЙ БАНК

Поиск по сайту







    MMetallica • Enter Sandman (tab) (аккорды и текст - chords & lyrics)


    438

    Print

    Видео «Enter Sandman (tab) (Metallica)»

    Видео клипы к песне подбираются автоматически сайтом youtube. Возможны некоторые несоответствия клипов песне.

    ↑ Спрятать рекламу ↑



    Download


     
    
    
    Intro.(When the drums come in)
     
     |-------------------------------------------|
     |-------------------------------------------|
     |-------------------------------------------|
     |-0-0-0-0-0-0-0-0-0-0-0-0-0-0-0-0-0| etc.
     
     First bridge bit(bridge bit, bit after intro)
     
     |----------------------|
     |----------------------|
     |------------------/7--|
     |-0-0-0-0-0-0-0----|
     
     Second bridge bit
     
     |---------------------|
     |---------------------|
     |-------/7-----------|
     |--0-0---6-0-0-0-1|
     
     Third damn bridge bit
     
     |-----------------------|
     |-----------------------|
     |-----/7----------------|
     |-0-0-6-5-0-0-0-0-|
     
     Cool main riff
     
     |-----------------------|  times 3
     |-----------------------|
     |--------/7-------------|
     |-0--0-----6-5--------|
     
     then:
     
     |-----------------------|
     |-----------------------|
     |-----------------------|
     |-3-0-2-0-2-3-2-0-|
     
     Verse
     
     |-----------------------------------------------------------------------------|
     |-----------------------------------------------------------------------------|
     |-----------------------------------------------------------------------------|
     |-0-0-0-0-0-0-0-1-0-0-0-0-0-0-0-1-0-0-0-0-0-0-3-0-2-0-2-3-2-0|
     Say your prayers 

    Тональность:

    Нет текста!



    Назад
    Рекомендуем посмотреть другие песни исполнителя «Metallica»:

    • Комментарии Facebook ()
    • Комментарии ВКонтакте



    Добавить в Избранное Браузера
    Сохранить здесь Очистить


    x

    0


    +
    -

    +
    -

    -

    Авторизация





    Зарегистрироваться

    M

    Дата и время

    • 09:09:37
       

    Социальные ссылки


    Наши приложения

    • Muzbank App Play Market
    • Muzbank Amazon App