MUZBANK



A Most Complete Bank Of Music Information

МУЗЫКАЛЬНО-ИНФОРМАЦИОННЫЙ БАНК

Поиск по сайту







    MMetallica • For All Intro (аккорды и текст - chords & lyrics)


    263

    Print

    Видео «For All Intro (Metallica)»

    Видео клипы к песне подбираются автоматически сайтом youtube. Возможны некоторые несоответствия клипов песне.

    ↑ Спрятать рекламу ↑



    Download


    E|-------------------------------------------------------------|
    B|-------------------------------------------------------------|
    G|-----------/-t------------------------/-t--------------------|
    D|-6-7-9---7-6-7-6-4-5-5-4-7-4-2-3-5---3-2-3-2-0-2-2-0-2-0-0-2-|
    A|-7-----7---------5-----5---5-3-----3---------2-----2---2-1---|
    E|-0-----------------------------------------------------------|
    
    E|-----------|
    B|-----------|
    G|-----3-----|
    D|-2-0-2---2-|
    A|---1-----4-|
    E|-----------|
    

    Тональность:

    Нет текста!



    Назад
    Рекомендуем посмотреть другие песни исполнителя «Metallica»:

    • Комментарии Facebook ()
    • Комментарии ВКонтакте



    Добавить в Избранное Браузера
    Сохранить здесь Очистить


    x

    0


    +
    -

    +
    -

    -

    Авторизация





    Зарегистрироваться

    M

    Дата и время

    • 19:42:47
       

    Социальные ссылки


    Наши приложения

    • Muzbank App Play Market
    • Muzbank Amazon App