MUZBANK



A Most Complete Bank Of Music Information

МУЗЫКАЛЬНО-ИНФОРМАЦИОННЫЙ БАНК

Поиск по сайту







    MMetallica • Helpless (аккорды и текст - chords & lyrics)


    170

    Print

    Видео «Helpless (Metallica)»

    Видео клипы к песне подбираются автоматически сайтом youtube. Возможны некоторые несоответствия клипов песне.

    ↑ Спрятать рекламу ↑



    Download



     
    
    
    Fast Rock =154
    Double time feel
    
    Intro      N.C.       Gtrs I&II                Rhy.Fig.1
             (Drums)           A5   B5     N.C.   F#5          E5 F5          E5
    ----------------------------|
    ----------------------------|
    ----------------------------|
    ---------4------------------|
    ---------|-----0-----2-----2p0--||--4-----4-----2--4-----4-----2|
    --------------------||--2-----2-----0--2-----2-----0|
    
                                (End Rhy.Fig.1)
                          E5  A5   B5     N.C.   F#5         E5 A5     B5   N.C.
    ----------------------------------------|
    ----------------------------------------|
    ----------------------------------------|
    --------------2-----4---------|------2-----4--------|
    |---------4-----4-----2---0-----2-----2p0-||--4-----4-----2--0-----2----2p0-|
    |---------2-----2-----0-------------------||--2-----2-----0-----------------|
    
    
    Chorus.
           Rhy.Fig.2(Gtrs.I&II)
    -----------------------------------------------------
    -----------------------------------------------------
    --------------------------------------5--------------
    |-------7--7--7--7--7--7--7--7--7p5---------------5-|--7--7--7--7--7--7--7--7
    --------------------------7--5--5--7-----------------
    -----------------------------------------------------
    
    
    -------------------------------------------------------|---------
    -------------------------------------------------------|---------
    --------------5-------------------------------------5--|---------
    --------------5---|---7--7--7--7--7--7--7--7--7p5---------------5--|---------
    --7--5--5--7----------------------------7--5--5--7-----|---------
    -------------------------------------------------------|---------
                                           End Rhy.Fig.2
    ----------------------------------------||
    ----------------------------------------||
    ----------------------------------------||
    |-------7--7--7--7--7--7----------------------------||
    --------------0---5--5-----7--7---------||
    ------------------3--3-----5--5---------||
    
                  Bass                                              Play 4 times
    ----------------------------------------|
    ----------------------------------------|
    ----------------------------------------|
    ----------------------------------------|
    -----4--------------------------||------0------2p0-----2---2p0--|
    -----2--------------------------||-2----------------2-----------|
    
    
    ----------------------------------------------------
    ----------------------------------------------------
    ----------------------------------------------------
    ----------------------------------------------------
    |----2-----4p2-----2---4p2-|------3----5p3-----3----5p3|-------5---7p5-----5
    |4--------------4-------------5--------------5-----------7--------------7---
    
    
    ----------------------------------------------------------------
    ----------------------------------------------------------------
    ----------------------------------------------------------------
    ----5-----7p5------5----7p5--------------5-----7p5------5----7p5 
    |---7p5----7---------------7-------------------7---------------7------------
    ----------------------------------------------------------------
    
    
    ---------------------------------------------------------------------------
    ---------------------------------------------------------------------------
    ---------------------------------------------------------------------------
    |--------7----9p7------7---9p7---------------------------------------------------------
    |---9--------------9-------------------3-----5p3-----3---5p3------3-----5p3-----3---5p3
    -----------------------5--------------5-----------5--------------5---------
    
    ---------------------------------------------------------------------------
    ---------------------------------------------------------------------------
    ---------------------------------------------------------------------------
    -------------------------7----9p7------7---9p7--------5----7p5-----7----7p9
    |------5-----7p5------5---7p5---9--------------9-------------7--------------9----------
    |-7---------------7--------------------------------------------------------------------
    
    ---------------------------------------------------------------------------
    ---------------------------------------------------------------------------
    |-----9-----11p9-----7----9p7----------------------------------------------------------
    |11--------------9---------------------------------------------------------------------
    ---------------------------5---7p5----5---7p5-------3---5p3----5--7p5------
    ----------------------7------------7-----------5------------7--------------
    
    ---------------------------------------------------------------------------
    ---------------------------------------------------------------------------
    -------------------------5-----7p5-----------------------------------------
    |-----7-----9p7-----5---7p5----7----------------5--------------------------------------
    |-9-------------7-------------------------------3---5---7-----9----------5----7----9---
    ----------------------------------------3---5-----7----------3----5----7---
    
    ---------------------------------------------------------------------------
    ---------------------------------------------------------------------------
    ---------------------------------------------------------------------------
    |------3-----5p3--5-----------------------------------------7---------------7----------
    |-5---------------3---5---7---9---------5---7---9-----9p7---7-----9---9p7---7-----9----
    ----------3---5---7---------3---5---7---------9---------------9------------
    
    -------------------------------------------------------------------
    -------------------------------------------------------------------
    -------------------------------------------------------------------
    |--------7------------7-------------9-------------------------------2----4-----
    |9p7-----7--------9---5------7------7-|-4----4----------4----4--------4----4----0----2--2p0
    |-----9----------------------5--------|-2----2----------2----2--------2----2---------------
    
    -------------------------------------------------------------------------------
    -------------------------------------------------------------------------------
    -------------------------------------------------------------------------------
    -------------------------------------------------------------------------------
    |-4----4----------4----4-------------------------------------------------------------------
    |-2----2----------2----2-------------------------------------------------------------------
    
    I gotta see you moving fast 
    See you come my way 
    See the dreams, I hope they last 
    Never fade away. 
    Gotta see the lights above 
    Make it loud tonight 
    Gotta set it all a-fire 
    Set it all a-light 
    See the flashing lights 
    Hear the thunder roar 
    I am gonna set you all a-light 
    Gotta make it man 
    I ain 

    Тональность:

    Нет текста!



    Назад
    Рекомендуем посмотреть другие песни исполнителя «Metallica»:

    • Комментарии Facebook ()
    • Комментарии ВКонтакте



    Добавить в Избранное Браузера
    Сохранить здесь Очистить


    x

    0


    +
    -

    +
    -

    -

    Авторизация





    Зарегистрироваться

    M

    Дата и время

    • 22:58:56
       

    Социальные ссылки


    Наши приложения

    • Muzbank App Play Market
    • Muzbank Amazon App