MUZBANK



A Most Complete Bank Of Music Information

МУЗЫКАЛЬНО-ИНФОРМАЦИОННЫЙ БАНК

Поиск по сайту







    MMetallica • Killing Time (аккорды и текст - chords & lyrics)


    353

    Print

    Видео «Killing Time (Metallica)»

    Видео клипы к песне подбираются автоматически сайтом youtube. Возможны некоторые несоответствия клипов песне.

    ↑ Спрятать рекламу ↑



    Download



    Gtr.1
     Intro
      N.C.   (Drums)                                 trem.pick...
    E|------------------||-------------------||--------------------|
    B|------------------||-------------------||--------------------|
    G|------------------||-------------------||--------------------|
    D|------------------||-------------------||--------------------|
    A|------------------||-------------------||--12----------------|
    E|------------------||-------------------||--///---------------|
    
    E|------------------||-------------------||--------------------|
    B|------------------||-------------------||--------------------|
    G|------------------||-------------------||--------------------|
    D|------------------||-------------------||--------------------|
    A|--12--------------||--10---------------||--7-----------------|
    E|--///-------------||--///--------------||--///---------------|
    
    Gtr.3
    N.C.                                                 C5
    Play 2nd time only
    E|---------------------||--------------------------||----------|
    B|*--------------------||--------------------------||----------|
    G|---------------------||--------------------------||----------|
    D|*--------------------||--------------------------||----------|
    A|---------------------||--------------------------||----------|
    E|---------------------||--------------------------||----------|
    
     Gtr.1
    E|--------------------------||--------------------------||-----|
    B|*-------------------------||--------------------------||-----|
    G|--------------------------||----------------------5---||-----|
    D|*-------------------------||----------------------5---||-----|
    A|---0--0--0--0--0--0--0--0-||-0--0--0--0--0--0--0--3---||-----|
    E|--------------------------||--------------------------||-----|
    
       Play 2nd time only
       Harm. .........|         N.C.                             D5
    E|-------------------||------------------------||--------------|
    B|-----------7-------||------------------------||--------------|
    G|------7---------5--||------------------------||--------------|
    D|-7-----------------||------------------------||--------------|
    A|-------------------||------------------------||--------------|
    E|-------------------||------------------------||--------------|
    
    E|--------||------------------------||-------------------------|
    B|--------||------------------------||-------------------------|
    G|---(5)--||------------------------||----------------------7--|
    D|---(3)--||------------------------||----------------------7--|
    A|---(3)--||-0--0--0--0--0--0--0--0-||-0--0--0--0--0--0--0--5--|
    E|--------||------------------------||-------------------------|
    
    E|---------------||-------------7-----||-----20----------------|
    B|---------------||---------7-------7-||---x-------------------|
    G|---------------||-----7-------------||-x-----------17--(17)--|
    D|---------------||-7-----------------||-----------------------|
    A|---------------||-------------------||-----------------------|
    E|---------------||-------------------||-----------------------|
    
    E|---------------||-------------------||-----------------------|
    B|---------------||-------------------||-----------------------|
    G|---------------||-------------------||-----------------------|
    D|---------------||------------7------||------------------7----|
    A|---------------||------------7------||------------------7----|
    E|---------------||-------------------||-----------------------|
    
      Gtr.1
      N.C.                                          G5       A5
    E|-----------------------------||------------------------------|
    B|*----------------------------||-----------------------------*|
    G|---------7--------5----------||----------------7--------9----|
    D|*----------------------------||---7p5----------5--------7---*|
    A|---0--0-----0--0-----0--0----||-----------0------------------|
    E|-----------------------------||------------------------------|
    
        A5
    E|----------------------|
    B|--10------10------10--|
    G|--9-------9--------9--|
    D|--7-------7--------7--|
    A|----------------------|
    E|----------------------|
    
    Fill 1 (gtr.3)
    E|----17/---17/----------17---||--(17)--|
    B|----20----20-----------20---||--(20)--|
    G|----------------------------||--------|
    D|----------------------------||--------|
    A|----------------------------||--------|
    E|----------------------------||--------|
    
    Rhy.Fig.1(Gtrs.1&2)
    E|------------------------------||-----------------------------|
    B|*-----------------------------||-----------------------------|
    G|-----------7p5-------5--------||--7p5-------7---------9------|
    D|*----------7p5-------5--------||--7p5-------5---------7------|
    A|---0---0---------0----------0-||--------0--------------------|
    E|------------------------------||-----------------------------|
    
       P.M.                                         (end Rhy.Fig.1)
    E|------------------------------||-----------------------------|
    B|------------------------------||----------------------------*|
    G|-----------7p5-------5--------||--7p5-------5---------5------|
    D|-----------7p5-------5--------||--7p5-------5---------5-----*|
    A|---0---0---------0----------0-||--------0---3---------3------|
    E|------------------------------||-----------------------------|
    
                  C5                 F5
    E|-----------------------------||----|
    B|-----------------------------||----|
    G|---7p5-------5-----------5-/-||-10-|
    D|---7p5-------5-----------5-/-||-10-|
    A|---------0---3-----------3-/-||-8--|
    E|-----------------------------||----|
    
       G5
    E|--------------------|
    B|--------------------|
    G|-12------12------12-|
    D|-12------12------12-|
    A|-10------10------10-|
    E|--------------------|
    
     1st,3rd,5th Verses
     w/Rhy.Fig.1(1 3/4 times)
     3rd time w/Fill 3
    
     N.C.                         G5      A5     N.C.
    |----------------------||--------------||----------------------|
     1.Sound of gunfire comes thrught the night;  killing andhatred,
       it?s a
    
              C5             N.C.                        G5      A5
    |---------------------||----------------------||---------------|
     terible sight.     Reports come in, there?s a   heavy  attack;
    
       Fill 3 (Gtr.3)
    E|------------------------------||---|
    B|----13------------------------||---|
    G|---------14------------(14)---||-x-|
    D|------------------------------||---|
    A|------------------------------||---|
    E|------------------------------||---|
    
                            3rd time w/Fill 4
      N.C.                          C5          B5
    |---------------------||---------------------------------|
      message seen, we?re   moving back.
    
                                        Rhy.Fill 1(Gtrs.1&2)......|
                                               P.M.
    E|---------------------------------||--------------------------|
    B|---------------------------------||--------------------------|
    G|---------------------------------||--7p5-------5-----------4-|
    D|---------------------------------||--7p5-------5-----------4-|
    A|---------------------------------||--------0---3-----------2-|
    E|---------------------------------||--------------------------|
    
     Gtrs.1&2
     Gtr.3
    E|---------------------------------||--------------------------|
    B|---5p1---------------------------||-6p3p0--------------------|
    G|----------3p1p0------------------||-------5p3p0--------------|
    D|-----------------3-(3)p1p0-------||-------------5p3p0p-------|
    A|---------------------------3p1p0-||--------------------5p3p0-|
    E|---------------------------------||--------------------------|
    
     Fill 4(Gtr.3)
        1&1/2  Full
         )     )??
        /     /~~~~
    E|-20-|20-17-20p17|17h2017-17-20p17-20p17-20p17-------17h20p17-|
    B|----|-----------|-----------------------------17-20----------|
    G|----|-----------|--------------------------------------------|
    D|----|-----------|--------------------------------------------|
    A|----|-----------|--------------------------------------------|
    E|----|-----------|--------------------------------------------|
                                                                Full
    E|-17-17h20p17-17-17h20p17-----17h20p17-17-||-20p17----------/-|
    B|------------------------17h20------------||-------20p17---20-|
    G|-----------------------------------------||------------------|
    D|-----------------------------------------||------------------|
    A|-----------------------------------------||------------------|
    E|-----------------------------------------||------------------|
        1&1/2
          )
         /
    E|--/---------||--------------------------------||-------------|
    B|-20--20--19-||-17----17h19p17------17---------||-------------|
    G|------------||----20-----------20------20--19-||-17-----(17)-|
    D|------------||--------------------------------||-------------|
    A|------------||--------------------------------||-------------|
    E|------------||--------------------------------||-------------|
    
      1st time w/Fill 2
    
         5fr             5fr
         D       D5      D        D5
    E|---------------------------------------||-----------------|
    B|-------------------5---6---5h6p5-------||---5---6---8---8-|
    G|-----------5---7-------------------7---||-----------------|
    D|---5h6h7-------------------------------||-----------------|
    A|---------------------------------------||-----------------|
    E|---------------------------------------||-----------------|
    
       Bb5                                  C5
     |--------------------------------||---------------------------|
     |                                                   2. Prepa -
     |
     |                                        Full    Full      Full
     |                                         )       )         )
    E|--5-----7-----8-------7---5-----||-5----/------5/--------5/-|
    B|--5---------------------------8-||-----8-------8---------8--|
    G|--------------------------------||--------------------------|
    D|--------------------------------||--------------------------|
    A|--------------------------------||--------------------------|
    E|--------------------------------||--------------------------|
    
       2nd,4th,6th Verses
     w/Rhy.Fig.1(1 3/4 times)
    
       N.C.                                            G5         A5
     |------------------------------------||-----------------------|
     |  rations   are   made   for   the     journey   back ;
     |
     |        Full   Full
     |        ____    )
     |       /      /         (Gtr.3 out)
    E|-----5/------/----------------------||-----------------------|
    B|-----8------------------------------||-----------------------|
    G|------------------------------------||-----------------------|
    D|------------------------------------||-----------------------|
    A|------------------------------------||-----------------------|
    E|------------------------------------||-----------------------|
    
      N.C.                        C5        N.C.
    |-------------------||--------------||-------------------------|
     it?s a survival, suplies are packed. No more nights in this e-
    
                                     w/Rhy.Fill 1  3rd time W/Fill 5
                                                           Gtrs. 1&2
             G5     A5     N.C.                         C5 B5   Bb5
    |-------------------||--------------||---------------||--------|
      ternal hell; destination is simple: we  move  out.
    
             Chorus
      C5      D5                     Bb5(VII)      F5  E5   D5
              P.M.                                          P.M.
    |------||--------------------||--------------------||----------|
                               You   left from the line._
             (Kill-ing  time.)_                    (Kill-ing time.)_
    
      Bb5(VI)         F5  G5 D5         Bb5(VI)  F5 E5  D5  To Coda
                            P.M.                             P.M.
    |---------------------||--------------||-------------||--------|
     Your turn to the kill.                 What?d ya say.       Ah,
                   (Kill-ing time.)_              (Kill-ing time.)_
    
      _____________________________________________________________
     |1.                                                           |
      Bb5(VI)  G5(III)
    |-----------||-------------------------------------||---------------------|
    | killing time,___           ah.                                 3.And he
                                                                         )
    | Gtr.3
    |-----------||-------------------------------------||----------------20---|
    |--10/17-17-||-20p17-17-20p17----20p17----20p17----||-20p17----20p17-----*|
    |-----------||----------------18-------18-------18-||-------18------------|
    |-----------||-------------------------------------||--------------------*|
    |-----------||-------------------------------------||---------------------|
    |-----------||-------------------------------------||---------------------|
    
        Fill 5(Gtr.3)
    |----17/--17--17--17--17--17---17/--17-||--20-----20---------(20)-|
    |----20---20--20--20--20--20---20---20-||--------------------------|
    |--------------------------------------||--------------------------|
    |--------------------------------------||--------------------------|
    |--------------------------------------||--------------------------|
    |--------------------------------------||--------------------------|
    
      |2.                        (Drums)
       Bb5(VI)  G5(III)
     |------------------------||------------------||---------------|
       killing time.__
    
       Interlude
    
        A5
     Gtr.3                                                           1/2
    |---------------------------||--------------------------||-------/-)--|
    |---------------------------||--------------------------||--7----7/---|
    |--------14--------17-------||-16--------15--------14--||--7----7----|
    |--------14--------17--x--x-||-16--x-----15--------14--||------------|
    |--0--0--12--0--0--15--x--x-||-14--x--0--13--0--0--12--||------------|
    |---------------------------||--------------------------||------------|
    
    |--------------------------||-------------------||--------------------|
    |---7p5--------------------||-------------------||--------------------|
    |---7p5-------5---9p5------||-------------------||--------------5-----|
    |---------7------------7---||-------------------||-----5--6--7-----7--|
    |--------------------------||--0---3--4--5--6---||--7-----------------|
    |--------------------------||-------------------||--------------------|
    
                                      A5(VII)
    |------------------------------||----------------------------------|
    |------------------------------||-------------------------------19-|
    |-5---7p5----7h9p7---9-11p9h11-||-10h12p10----14-12----16-14/16----|
    |---------7--------9-----------||----------12-------12-------------|
    |------------------------------||----------------------------------|
    |------------------------------||----------------------------------|
    
      Guitar solo
      E5
    |--/--------17-19-|
    |-20--------------|
    |-----------------|
    |-----------------|
    |-----------------|
    |-----------------|
    
                 G5(III)                     E5
    |--20--19--17--19--17h19p17------17--/-||-17--17--17---17/-17--17--17-|
    |----------------------------20-----20-||-20--20--20---20--20--20--20-|
    |--------------------------------------||-----------------------------|
    |--------------------------------------||-----------------------------|
    |--------------------------------------||-----------------------------|
    |--------------------------------------||-----------------------------|
    
                  D5                       E5
    |-17/-17--17--17---17/-17--17--17-||--17/-17--17--17---17/-17--17--17-|
    |-20--20--20--20---20--20--20--20-||--20--20--20--20---20--20--20--20-|
    |---------------------------------||----------------------------------|
    |---------------------------------||----------------------------------|
    |---------------------------------||----------------------------------|
    |---------------------------------||----------------------------------|
    
                   G5(III)
    |--17/-17--17--17---17/-17--17--17-|
    |--20--20--20--20---20--20--20--20-|
    |----------------------------------|
    |----------------------------------|
    |----------------------------------|
    |----------------------------------|
    
       E5                          G5(III)  F#5    F5(I)
    |--20-----20---------------||------------17--||---/--------17--19-|
    |--------------------------||----------------||--20---------------|
    |--------------------------||----------------||-------------------|
    |--------------------------||----------------||-------------------|
    |--------------------------||----------------||-------------------|
    |--------------------------||----------------||-------------------|
    
       G5(III)                                    A5(V)
    |--20---19---17---19p17--------17--------17----/--|
    |-------------------------20--------20--------20--|
    |-------------------------------------------------|
    |-------------------------------------------------|
    |-------------------------------------------------|
    |-------------------------------------------------|
    
    |---17---17/--17--17/--17---x--17-|
    |--------20---20--20---20---x-----|
    |---------------------------------|
    |---------------------------------|
    |---------------------------------|
    |---------------------------------|
    
                                           F5(I)        G5(III)D.S. al Coda
    |--17/-17---20p17----------12-------||--/---------15-||--15------------|
    |--20--20----------20--15-----15p13-||-15-----15-----||------15--15-----|
    |-----------------------------------||---------------||-----------------|
    |-----------------------------------||---------------||-----------------|
    |-----------------------------------||---------------||-----------------|
    |-----------------------------------||---------------||-----------------|
    
      Coda
    
        Bb5(VI)  G5(III)         A5(V)
    |-------------------------||----------------------------------|
    |  killing   time._______
    |
    |                           Gtr.3
    |-------------------------||---/----------17----------/-------|
    |-------------------------||--20--------------20---17/---17---|
    |-------------------------||-----------------------19---------|
    |-------------------------||----------------------------------|
    |-------------------------||----------------------------------|
    |-------------------------||----------------------------------|
    
                        G5(III)    A5(V)
    |----------20-------15/---||---17/-----17/-----17/---||--(17)---|
    |--20--17-----------18----||---20------20------20----||--(20)---|
    |-------------------------||-------------------------||----------|
    |-------------------------||-------------------------||----------|
    |-------------------------||-------------------------||----------|
    |-------------------------||-------------------------||----------|
    
                 Addition Lyrics
    
    3.And he knew what he needed to keep us alive,
      No time for cowardice, kill and survive
      Like a killer kid with a switchblade knife,
      Nasty world, he?ll take your life.
    
    4.The silens is over, they attack again,
      Killing and hatred drive me insane.
      Reports come in of a heavy attack,
      Message is seen, we?re moving back.(To Chorus)
    
    5.Repeat 1st Verse
    
    6.Repeat 3st Verse
    

    Тональность:

    Нет текста!



    Назад
    Рекомендуем посмотреть другие песни исполнителя «Metallica»:

    • Комментарии Facebook ()
    • Комментарии ВКонтакте



    Добавить в Избранное Браузера
    Сохранить здесь Очистить


    x

    0


    +
    -

    +
    -

    -

    Авторизация





    Зарегистрироваться

    M

    Дата и время

    • 15:05:20
       

    Социальные ссылки


    Наши приложения

    • Muzbank App Play Market
    • Muzbank Amazon App