MUZBANK



A Most Complete Bank Of Music Information

МУЗЫКАЛЬНО-ИНФОРМАЦИОННЫЙ БАНК

Поиск по сайту







    MMetallica • Nothing Else Matters (solo ver 5) (аккорды и текст - chords & lyrics)


    302

    Print

    Видео «Nothing Else Matters (solo ver 5) (Metallica)»

    Видео клипы к песне подбираются автоматически сайтом youtube. Возможны некоторые несоответствия клипов песне.

    ↑ Спрятать рекламу ↑



    Download


     
    
    
    e:--------------------------------------------------------|-
    b:---15--------15-----------------------------------------|-
    g:---14b16-----14b16b14----12---14-12-11-12-11----11------|-
    D:---------------------------------------------14----12-14|-
    A:--------------------------------------------------------|-
    E:--------------------------------------------------------|-
    
    e:-----------------12-------12----------------------------|-
    b:-----------------------------15-12----------------------|-
    g:-12-14-12--14b16----14b16----------15-12-15-14-12h14p12-|-
    D:--------------------------------------------------------|-
    A:--------------------------------------------------------|-
    E:--------------------------------------------------------|-
    
    e:--------------------------------------------------------|-
    b:-15----15-----------------------------------------------|-
    g:-14b16-14b16b14-12--------------------------------------|-
    D:--------------------------------------------------------|-
    A:--------------------------------------------------------|-
    E:--------------------------------------------------------|-
    
    e:--/15-14----15-14--15/17-15--14h15p14----15-14----------|-
    b:---------12---------------------------12-------12-------|-
    g:--------------------------------------------------------|-
    D:--------------------------------------------------------|-
    A:--------------------------------------------------------|-
    E:--------------------------------------------------------|-
    
    e:---------------------------------------12---------------|-
    b:------------15----------------------12----12-15---------|-
    g:--12-14-12--14b16b14p12----12-14b16---------------------|-
    D:------------------------14------------------------------|-
    A:--------------------------------------------------------|-
    E:--------------------------------------------------------|-
    
    e:--------------------------------------------------------|-
    b:--15b17b15p12--15b17--------12--15--12----/7--5--7--5---|-
    g:--------------------------------------------------------|-
    D:--------------------------------------------------------|-
    A:--------------------------------------------------------|-
    E:--------------------------------------------------------|-
     

    Тональность:

    Нет текста!



    Назад
    Рекомендуем посмотреть другие песни исполнителя «Metallica»:

    • Комментарии Facebook ()
    • Комментарии ВКонтакте



    Добавить в Избранное Браузера
    Сохранить здесь Очистить


    x

    0


    +
    -

    +
    -

    -

    Авторизация





    Зарегистрироваться

    M

    Дата и время

    • 18:37:47
       

    Социальные ссылки


    Наши приложения

    • Muzbank App Play Market
    • Muzbank Amazon App