MUZBANK



A Most Complete Bank Of Music Information

МУЗЫКАЛЬНО-ИНФОРМАЦИОННЫЙ БАНК

Поиск по сайту







    MMetallica • One Live (аккорды и текст - chords & lyrics)


    298

    Print

    Видео «One Live (Metallica)»

    Видео клипы к песне подбираются автоматически сайтом youtube. Возможны некоторые несоответствия клипов песне.

    ↑ Спрятать рекламу ↑



    Download


     
    
    
    METALLICA - One 
    There are many ways that ive seen this song can be played this tab is right ive
    spent 8 months getting it right except the end 2 solos 
    
    |--------------|--------------|--------------|-------------------| 
    |--------------|--------------|--------------|-------------------| 
    |--------------|--------------|--------------|----------------0--| 
    |-----4-----0--|-----4-----0--|-----4-----0--|-----4-----0-------| 
    |--2-----2-----|--------------|--2-----2-----|-------------------| 
    |--------------|--3-----3-----|--------------|--3-----3----------| 
     
                 
    |--------------|--------------|--------------|-------------------| 
    |--------------|--------------|--------------|-------------------| 
    |-(0)----------|--------------|--------------|-------------------| 
    |-----4-----0--|-----4-----0--|-----4-----0--|-------------------| 
    |--2-----2-----|--0-----0-----|--------------|-----2-----2-------| 
    |--------------|--------------|--3-----3-----|--0-----2----------| 
     
       
    |--------------|--------------|--------------|-------------------| 
    |--------------|--------------|--------------|-------------------| 
    |*-------------|--------------|--------------|--------------0----| 
    |*----4-----0--|-----4-----0--|-----4-----0--|-----4-----0-------| 
    |--2-----2-----|--------------|--2-----2-----|-------------------| 
    |--------------|--3-----3-----|--------------|--3-----3----------| 
     
    |--------------|--------------|--------------|-------------------| 
    |--------------|--------------|--------------|-------------------| 
    |--------------|--------------|--------------|------------------*| 
    |-----4-----0--|-----4-----0--|-----4-----0--|------------------*| 
    |--2-----2-----|--0-----0-----|--------------|-----2-----2-------| 
    |--------------|--------------|--3-----3-----|--0-----2----------| 
     
    |--------------|--------------|--------------|-------------------| 
    |--------------|--------------|--------------|-------------------| 
    |--------------|--------------|--------------|----------------0--| 
    |-----4-----0--|-----4-----0--|-----4-----0--|-----4-----0-------| 
    |--2-----2-----|--------------|--2-----2-----|-------------------| 
    |--------------|--3-----3-----|--------------|--3-----3----------| 
     
                 
    |--------------|--------------|--------------|-------------------| 
    |--------------|--------------|--------------|-------------------| 
    |-(0)----------|--------------|--------------|-------------------| 
    |-----4-----0--|-----4-----0--|-----4-----0--|-------------------| 
    |--2-----2-----|--0-----0-----|--------------|-----2-----2-------| 
    |--------------|--------------|--3-----3-----|--0-----2----------| 
     
    
    |---------------------------|----------------------|----------------| 
    |---------------------------|----------------------|----------------| 
    |---------------------------|----------------------|----------------| 
    |---------------------------|----4----0--0--4--0---|-----4----0--4-0| 
    |-----2-----2-----2--2h4--2-|-2----2---------------|----------------| 
    |--0-----2-----0------------|----------------------|--3-----3-------| 
     
       
    
    I can't remember anything
    Can't tell if this is true or dream
    Deep down inside I feel to scream
    This terrible silence stops me
    
    Now that the war is through with me
    I'm waking up, I cannot see
    That there is not much left of me
    Nothing is real but pain now
    
    Hold my breath as I wish for death
    Oh please, God, wake me
    
    Back in the womb it's much
    too real
    In pumps life that I must feel
    But can't look forward to reveal
    Look to the time when I'll live
    
    Fed through the tube that sticks in me
    Just like a wartime novelty
    Tied to machines that make me be
    Cut this life off from me
    
    Hold my breath as I wish for death
    Oh please, God, wake me
    
    Now the world is gone, I'm just one
    Oh God, help me
    Hold my breath as I wish for death
    Oh please, God, help me
    
    Darkness imprisoning me
    All that I see
    Absolute horror
    I cannot live
    I cannot die
    Trapped in myself
    Body my holding cell
    
    Landmine has taken my sight
    Taken my speech
    Taken my hearing
    Taken my arms
    Taken my legs
    Taken my soul
    Left me with life in hell

    Тональность:

    Нет текста!



    Назад
    Рекомендуем посмотреть другие песни исполнителя «Metallica»:

    • Комментарии Facebook ()
    • Комментарии ВКонтакте



    Добавить в Избранное Браузера
    Сохранить здесь Очистить


    x

    0


    +
    -

    +
    -

    -

    Авторизация





    Зарегистрироваться

    M

    Дата и время

    • 16:58:49
       

    Социальные ссылки


    Наши приложения

    • Muzbank App Play Market
    • Muzbank Amazon App