MUZBANK



A Most Complete Bank Of Music Information

МУЗЫКАЛЬНО-ИНФОРМАЦИОННЫЙ БАНК








    MMetallica • Small Hours (аккорды и текст - chords & lyrics)


    187

    Print

    Видео «Small Hours (Metallica)»

    Видео клипы к песне подбираются автоматически сайтом youtube. Возможны некоторые несоответствия клипов песне.

    ↑ Спрятать рекламу ↑






     
    
    
    Tune all guitars down 1 full step
    1)
    d---------------------------------------0
    A-----7----8----7----8---6---7---6---7--7
    F--10---10---10---10---9---9---9---9----9
    C---------------------------------------9
    G----------------------------------------
    D----------------------------------------
    Intro with flange and delay 
    
    
    2)
    C-----------------------------------------------------
    G--2-2-4/5-4/5--2-2-4/5--2-2-4/5-4/5--2-2-4/5--54-43
    D--0-0-2/3-2/3--0-0-2/3--0-0-2/3-2/3--0-0-2/3--32-21
    Get on with it
    
    
    3)
    F------------
    C------------
    G-------7-5-4
    D--0-0--5-3-2
      pm..
    Don 

    Тональность:

    Нашли ошибку?



    Назад
    Рекомендуем посмотреть другие песни исполнителя «Metallica»:

    • Комменты Fb ()
    • Комменты ВК



    Добавить в Избранное Браузера
    Сохранить здесь Очистить


    x

    0


    +
    -

    +
    -

    -

    Авторизация





    Зарегистрироваться

    M

    Дата и время

    • 09:52:27
       

    Социальные ссылки


    Наши приложения

    • Muzbank App Play Market
    • Muzbank Amazon App