MUZBANK



A Most Complete Bank Of Music Information

МУЗЫКАЛЬНО-ИНФОРМАЦИОННЫЙ БАНК

Поиск по сайту







    MMetallica • Stone Dead Forever (аккорды и текст - chords & lyrics)


    296

    Print

    Видео «Stone Dead Forever (Metallica)»

    Видео клипы к песне подбираются автоматически сайтом youtube. Возможны некоторые несоответствия клипов песне.

    ↑ Спрятать рекламу ↑



    Download



    Intro(many times)
    G|------------------|
    D|------------------|
    A|--5-3-5--3--5-3-5-|
    E|------------------|
    
    Verse(2x)
    G|----------------------------------------------------|
    D|----------------------------------------------------|
    A|5-3-5---5-3-5---5-3-5---3-1-3--1--------------------|
    E|----------------------------------------------5-3-5-|
    
    Chorus
    G|---------------------------------------------|
    D|---------------------------------------------|
    A|---------------------------------------------|
    E|5-5-5-5-5-5-5-5-5-5-5-5-5--8-8-8-8-8-8-8-8-8-|
    
    G|----------------------------------------|
    D|----------------------------------------|
    A|----------------------------------------|
    E|-8-8-8-8-8-8--3-3-3-3-3-3-3-3-3-3-3-3-3-|
    
    Chorus(cont`d)
    G|----------------------------------------------|
    D|----------------------------------------------|
    A|----------------------------------------------|
    E|-0-0-0-0-0-0-0-0-0-0-0-0-0-0--5-5-5-5-5-5-5-5-|
    
    G|---------------------------------------|
    D|---------------------------------------|
    A|---------------------------------------|
    E|-5-5-5-5-5-5-8-8-8-8-8-8-8-8-8-8-8-8-8-|
    
    Chorus(cont`d)
    G|--------------------------|
    D|--------------------------|
    A|--------------------------|
    E|5-5-5-5-3-3-2-2-0-0-0-0-I-|
    
    Bridge
    G|--------------------------------------|
    D|--------------------------------------|
    A|0-0-0-0-0-0-0-0-0-0-0-0/3-3-3-3-3-3-3-|
    E|--------------------------------------|
    
    G|------------------------------------|
    D|------------------------------------|
    A|-3-3-3-3-3/5-5-5-5-5-5-5-5-5-5-5-5/-|
    E|------------------------------------|
    
    Bridge(cont`d)
    G|-------------------------|
    D|-------------------------|
    A|8-8-8-8-8-10-10-10-10-10-|
    E|-------------------------|
    
    
    (Originally recorded by Motorhead)
    
    Get on!
    
    You think you see me, in the glass
    You think you hear me, better listen fast
    I think I see you, gone to seed
    Think your reason, is your guilt and greed
    
    You're out there on your own
    Your face is turned to stone
    What ever happened to your life?
    Stone dead forever
    All right!
    
    You're a financial wizard, yeah, a top tycoon
    You're a sweet long lizard, with a silver spoon
    You know you've never had it, quite so good
    And you didn't know, that you even could
    
    Your time has come to own
    Your touch turned to gold
    What ever happened to your life?
    Stone dead forever
    All right!
    
    It's been a long time, it's been a long long wait
    And you caught your fingers, in the pearly gates
    You better leave your number, and we'll call you
    You know your problem, ain't exactly new
    
    Your time has come today
    Your face has turned to hay
    What ever happened to your life?
    Stone dead forever
    That's right!
    
    Yo!
    
    [Aaah...]
    
    
    
    tune all guitars down 1/2 step
    
    bass intro
    Gb--9---7---5-------2---9
    Db--9---7---5---5---2---9
    Ab--7---5---3---5---0---7
    Eb--0-----------3-------0
    guitar intro
    
    Gb--9---9--9---9--9---9-----2--9---9--9---9--9---9--5--4
    Db--9---9--9---9--9---9--5--2--9---9--9---9--9---9--5--4
    Ab--7-7-7--7-7-7--7-7-7--5--0--7-7-7--7-7-7--7-7-7--3--2
    Eb-----------------------3------------------------------
         pm      .      .            .      .      .
    Can't you see me
    
    Gb---------------------------------------
    Db----5---5---5---5---7---7---7---7--5--4
    Ab----5---5---5---5---7---7---7---7--5--4
    Eb--7---7---7---7---9---9---9---9----3--2
    
    Gb---------------------------------------------
    Db----5---5---5---5---7---7---7---7--5--4--3--2
    Ab----5---5---5---5---7---7---7---7--5--4--3--2
    Eb--7---7---7---7---9---9---9---9----3--2--1--0
    Right there on your own.............Stone Dead Forever!!!
    
    Gb--------2--5--7
    Db--2--5--2--5--7  twice then to intro riff
    Ab--2--5--0--3--5
    Eb--0--3---------
    solo riff 

    Тональность:

    Нет текста!



    Назад
    Рекомендуем посмотреть другие песни исполнителя «Metallica»:

    • Комментарии Facebook ()
    • Комментарии ВКонтакте



    Добавить в Избранное Браузера
    Сохранить здесь Очистить


    x

    0


    +
    -

    +
    -

    -

    Авторизация





    Зарегистрироваться

    M

    Дата и время

    • 05:00:52
       

    Социальные ссылки


    Наши приложения

    • Muzbank App Play Market
    • Muzbank Amazon App