MUZBANK



A Most Complete Bank Of Music Information

МУЗЫКАЛЬНО-ИНФОРМАЦИОННЫЙ БАНК

Поиск по сайту







    MMetallica • Sweet Amber (аккорды и текст - chords & lyrics)


    292

    Print

    Видео «Sweet Amber (Metallica)»

    Видео клипы к песне подбираются автоматически сайтом youtube. Возможны некоторые несоответствия клипов песне.

    ↑ Спрятать рекламу ↑



    Download


    Key: * is palm mute
    
    Настройка: C G C F A D
     (как System of a down)
    Intro
    D|-------------------------------------------------------------|
    A|-------------------------------------------------------------|
    F|-5/7-5h7-10b12r10-5/7--5h7--10b12r10--5/7--5h7--10b12r10-5/7-|
    C|-------------------------------------------------------------|
    G|-------------------------------------------------------------|
    C|-------------------------------------------------------------|
    
    W/Distortion
    Verse 1     3 раза            затем:
    D|-----------------------|----------------------|
    A|-----------------------|----------------------|
    F|-----------------------|----------------------|
    C|-10/12-------10/12-----|-10/12----------------|
    G|-10/12-------10/12-----|-10/12----------------|
    C|-10/12-00-00-10/12br14-|-10/12-00-00-00-00-00-|
             ** **                   ** ** ** ** **
    
    Verse 2    3 раза            затем:
    D|-----------------------|----------------------|
    A|-----------------------|----------------------|
    F|-----------------------|----------------------|
    C|-10/12-------10/12-----|-10/12----------------|
    G|-10/12-------10/12-----|-10/12----------------|
    C|-10/12-------10/12-14b-|-10/12-00-00-00-00-00-|
    
     Then she took my head.....
    Bridge 1 (wah wah pedal)
    D|-------------------------------|
    A|-8/15--------8/13----8/11-8/10-|
    F|-------------------------------|
    C|-------------------------------|
    G|-------------------------------|
    C|-------------------------------|
    
    Bridge 2
    D|-------------------------|
    A|-------------------------|
    F|-------------------------|
    C|-----0-----0-----3-3-3-3-|
    G|-----0-----0-----3-3-3-3-|
    C|-0-0-0-0-0-0-0-0-3-3-3-3-|
    
    Using what i want........
    Chorus 1
    D|----------------------|
    A|----------------------|
    F|----------------------|
    C|-0-------2-3------8-7-|
    G|-0-------2-3------8-7-|
    C|-0-------2-3------8-7-|
    
    How sweet are you....
    Chorus 2
    D|----------------------|
    A|----------------------|
    F|----------------------|
    C|-------3h5--------3p0-|
    G|-------3h5--------3p0-|
    C|-0-0-0-3h5--0-0-0-3p0-|
       *   *   *             *   *  *
    Verse 3
    D|-------------------------------------------------------------|
    A|-------------------------------------------------------------|
    F|-------------------------------------------------------------|
    C|-------------------------------------------------------------|
    G|-------------------------------------------------------------|
    C|-12-0000-12-0000-12-0000-15-12-14-0000-14-0000-14-0000-20-19-|
          ****    ****    ****          ****    ****    ****
    
    Verse 4
    D|--------------------------------------------------------|
    A|--------------------------------------------------------|
    F|--------------------------------------------------------|
    C|-0------0------0------3-0-2------2----------------------|play
    G|-0------0------0------3-0-2------2----------------------|once
    C|-0-0000-0-0000-0-0000-3-0-2-0000-2-0000-0-0-1-0-0-0-1-0-|
         ****   ****   ****       ****   ****
    
    D|--------------------------------------------------------|
    A|--------------------------------------------------------|
    F|--------------------------------------------------------|
    C|-0------0-----------------2------2----------------------|play
    G|-0------0-----------------2------2----------------------|once
    C|-0-0000-0-0-0-1-0-0-0-1-0-2-0000-2-0000-0-0-1-0-0-0-1-0-|
         ****                     ****   ****
    
    D|--------------------------------------------------------|
    A|--------------------------------------------------------|
    F|--------------------------------------------------------|play
    C|-0-1-0-0------------------2------2----------------------|twice
    G|-0-1-0-0------------------2------2----------------------|
    C|-0-1-0-0--0-0-1-0-0-0-1-0-2-0000-2-0000-0-0-1-0-0-0-1-0-|
                                       ****   ****
    

    Тональность:

    Нет текста!



    Назад
    Рекомендуем посмотреть другие песни исполнителя «Metallica»:

    • Комментарии Facebook ()
    • Комментарии ВКонтакте



    Добавить в Избранное Браузера
    Сохранить здесь Очистить


    x

    0


    +
    -

    +
    -

    -

    Авторизация





    Зарегистрироваться

    M

    Дата и время

    • 15:03:36
       

    Социальные ссылки


    Наши приложения

    • Muzbank App Play Market
    • Muzbank Amazon App