MUZBANK



A Most Complete Bank Of Music Information

МУЗЫКАЛЬНО-ИНФОРМАЦИОННЫЙ БАНК

Поиск по сайту







    MMetallica • That Failed Solo (аккорды и текст - chords & lyrics)


    276

    Print

    Видео «That Failed Solo (Metallica)»

    Видео клипы к песне подбираются автоматически сайтом youtube. Возможны некоторые несоответствия клипов песне.

    ↑ Спрятать рекламу ↑



    Download


    Here`s the Solo:
    E|-------------------------|-------------------------|
    B|-----12------------------|-------------------------|
    G|-14~~---14-12-11-12-11---|-11h12p117---7---7-7-7/9-|
    D|----------------------14-|---------------9---------|
    A|-------------------------|-------------------------|
    E|-------------------------|-------------------------|
    
    E|-0--0--0--0--0--0--0--0--0--0-|-0--0--0--0--0--0--10/121/12-|
    B|-5--7--8-10-12-10--8--7--8--7-|-5--4--5--7--8-10--10/121/12-|
    G|------------------------------|-----------------------------|
    D|------------------------------|-----------------------------|
    A|------------------------------|-----------------------------|
    E|------------------------------|-----------------------------|
    
    E|-----------------------------|
    B|-----------------------------|
    G|-----12-14-14^p12---14^p12---|
    D|-7/14------------14-------14-|
    A|-----------------------------|
    E|-----------------------------|
    
    E|------------------------------|
    B|----15^~~~--------------------|
    G|-12-14^~~~--9/11/12/14/161412-|
    D|------------------------------|
    A|------------7/9/-10/12/14129--|
    E|------------------------------|
    
    E|----------------------------|
    B|----------------------------|
    G|-/16-X-X-14--X-X-12-11-9--9-|
    D|----------------------------|
    A|-/14-X-X-12--X-X-10--9-7----|
    E|----------------------------|
    
    E|-----------------------------|
    B|-------------14h15p14--14-15-|
    G|--7-6----6-7---------16------|
    D|------9----------------------|
    A|-----------------------------|
    E|-----------------------------|
    
    E|-----14h15p14-----14-15-17-|
    B|--17----------17-----------|
    G|---------------------------|
    D|---------------------------|
    A|---------------------------|
    E|---------------------------|
    
    E|--19---19-19-19-19-19---19-19-|
    B|------------------------------|
    G|------------------------------|
    D|------------------------------|
    A|------------------------------|
    E|------------------------------|
    
    E|-19-19---19-19-19-19-19---19-|
    B|-----------------------------|
    G|-----------------------------|
    D|-----------------------------|
    A|-----------------------------|
    E|-----------------------------|
    
    E|-19-19-19--19-19p17p15-19-|
    B|--------------------------|
    G|--------------------------|
    D|--------------------------|
    A|--------------------------|
    E|--------------------------|
    
    E|--19p17p15---15h17-19p17p15h17-|
    B|----------17-------------------|
    G|-------------------------------|
    D|-------------------------------|
    A|-------------------------------|
    E|-------------------------------|
    
    E|----15h17-19-19p17p15---|
    B|-17------------------17-|
    G|------------------------|
    D|------------------------|
    A|------------------------|
    E|------------------------|
    
    E|-19p17p15---19p17p15---|
    B|---------17---------17-|
    G|-----------------------|
    D|-----------------------|
    A|-----------------------|
    E|-----------------------|
    
    E|-19p17p15---15--19p17p1514-|
    B|---------17----------------|
    G|---------------------------|
    D|---------------------------|
    A|---------------------------|
    E|---------------------------|
    
    E|--17p15p1412--15p14p1210-|
    B|-------------------------|
    G|-------------------------|
    D|-------------------------|
    A|-------------------------|
    E|-------------------------|
    
    E|--14p12p109--12p10p97--7----|
    B|----------------------8---8-|
    G|----------------------------|
    D|----------------------------|
    A|----------------------------|
    E|----------------------------|
    
    E|------------------------------|
    B|------------------------------|
    G|------------------------------|
    D|-4h5p4----------4h5p4---------|
    A|------7-5-42--------7-5-42----|
    E|-------------5-3------------5-|
    
    E|----22^--22^22^-22~~-19-22-|
    B|---------------------------|
    G|---------------------------|
    D|---------------------------|
    A|---------------------------|
    E|-3-------------------------|
    
    E|-19h22p19--19-19-19-19-19-19----|
    B|---------22-22-22^22^22^-22^22^-|
    G|--------------------------------|
    D|--------------------------------|
    A|--------------------------------|
    E|--------------------------------|
    
    E|-19--22p19--19-22p19-22p19---|
    B|----------22--------------22-|
    G|-----------------------------|
    D|-----------------------------|
    A|-----------------------------|
    E|-----------------------------|
    
    E|-19-22p19-22p19--19-22p19---|
    B|---------------22--------22-|
    G|----------------------------|
    D|----------------------------|
    A|----------------------------|
    E|----------------------------|
    
    E|-19-22p19-22p19-19----------|
    B|------------------22-22^p19-|
    G|----------------------------|
    D|----------------------------|
    A|----------------------------|
    E|----------------------------|
    
    E|-----------------------------|
    B|-22^--22p19------------------|
    G|-----------21-19--19-21^-21^-|
    D|----------------21-----------|
    A|-----------------------------|
    E|-----------------------------|
    
    E|---------------------------------|
    B|---------------------------------|
    G|-21^-21^-21^-21^-21^-21^-21^-21^-|
    D|---------------------------------|
    A|---------------------------------|
    E|---------------------------------|
    
    E|------------------------------|
    B|------------------------------|
    G|--19--------------------------|
    D|-----21~~~~~~~~~~~~~~~~~~~~~~-|
    A|------------------------------|
    E|------------------------------|
    

    Тональность:

    Нет текста!



    Назад
    Рекомендуем посмотреть другие песни исполнителя «Metallica»:

    • Комментарии Facebook ()
    • Комментарии ВКонтакте



    Добавить в Избранное Браузера
    Сохранить здесь Очистить


    x

    0


    +
    -

    +
    -

    -

    Авторизация





    Зарегистрироваться

    M

    Дата и время

    • 07:00:31
       

    Социальные ссылки


    Наши приложения

    • Muzbank App Play Market
    • Muzbank Amazon App