MUZBANK



A Most Complete Bank Of Music Information

МУЗЫКАЛЬНО-ИНФОРМАЦИОННЫЙ БАНК

Поиск по сайту







    MMetallica • The Frayed Ends Of Sanity (аккорды и текст - chords & lyrics)


    277

    Print

    Видео «The Frayed Ends Of Sanity (Metallica)»

    Видео клипы к песне подбираются автоматически сайтом youtube. Возможны некоторые несоответствия клипов песне.

    ↑ Спрятать рекламу ↑



    Download



    Intro:
    
    G|-------------------|
    D|-------------------|
    A|------3----------2-|
    E|-0---------0-------|
    
      "Oh-ee-oh"
    G|--------------|
    D|--------------|
    A|---1------1---|
    E|-0---0-xx---0-|
    
      Whoosh
    G|----------|
    D|----------|
    A|---1-11-1-|
    E|----------|
    
    Verse (this style of Verse is complex. It alternates
    the 2nd and 1st riff. When singing, 2nd, and 1st when
    not. After a few of each, alternate between 3rd and 1st
    riff twice. Then go back and do the 1st riff twice):
    
    G|-----------------------------|
    D|-----------------------------|
    A|---------1-------1-----------|
    E|-0-0-0-0----0--0---0-0-0-0-1-|
    
    G|-------------------------------------------------|
    D|-------------------------------------------------|
    A|-------------------------------------------------|
    E|-7-0-0-7-0-0-6-0-0-6-0-0-5-0-0-5-0-0-4-0-0-3-0-0-|
    
    G|-----------------|
    D|-----------------|
    A|-----------------|
    E|-7-7-6-6-5-5-4-4-|
    
    Pre-Chorus:
    
    G|-----------------------------------------|
    D|-----------------------------------------|
    A|-----------------------------------------|
    E|-0-0-3-3-5-0-0-3-3-5-0-0-3-3-0-0-3-4-5-6-|
    
    G|-----------------------------------------|
    D|-----------------------------------------|
    A|-----------------------------------------|
    E|-0-0-3-3-5-0-0-3-3-0-0-0-3-3-0-0-3-4-5-6-|
    
    Chorus:
    
    G|----------|-----------|----------|---------|
    D|----------|-----------|----------|---------|
    A|----------|-----------|------2---|---------|
    E|-0---2----|-3-4-5-6---|-0--------|-3-4-5-6-|
    
    G|----------|-----------|---------|
    A|----------|-----------|---------|
    D|----------|-----------|-7-----5-|
    E|-0--3--2--|-3-4-5-6---|---------|
    
    G|--------------------------|
    D|--------------------------|
    A|----------3-4-5-6---------|
    E|-3-4-5-6----------3-4-5-6-|
    
    Bridge (do this, then go one note higher, ect.):
    
    G|--------------------------------|
    D|-2-4-2-5------------------------|
    A|---------4-2-2h4p2p-----------2-|
    E|--------------------5-3-2-3-5---|
    
      Pre-Solo
    G|-----------------------------|
    D|-----------------------------|
    A|-7p5h7-7p5h7-7p5h7-7p5h7-----|
    E|-------------------------7-6-|
    
    G|------------------------------|
    D|------------------------------|
    A|-7p5h7-7p5h7-7p5h7-7p5h7------|
    E|--------------------------6-8-|
    
      Post-Solo
    G|---------------------------|
    D|---------------------------|
    A|-7-----5-7---7---5h7-------|
    E|---0-0-----0---0-----0-0-0-|
    

    Тональность:

    Нет текста!



    Назад
    Рекомендуем посмотреть другие песни исполнителя «Metallica»:

    • Комментарии Facebook ()
    • Комментарии ВКонтакте



    Добавить в Избранное Браузера
    Сохранить здесь Очистить


    x

    0


    +
    -

    +
    -

    -

    Авторизация





    Зарегистрироваться

    M

    Дата и время

    • 17:53:01
       

    Социальные ссылки


    Наши приложения

    • Muzbank App Play Market
    • Muzbank Amazon App