MUZBANK



A Most Complete Bank Of Music Information

МУЗЫКАЛЬНО-ИНФОРМАЦИОННЫЙ БАНК

Поиск по сайту







    MMetallica • To Live Is To Die (аккорды и текст - chords & lyrics)


    412

    Print

    Видео «To Live Is To Die (Metallica)»

    Видео клипы к песне подбираются автоматически сайтом youtube. Возможны некоторые несоответствия клипов песне.

    ↑ Спрятать рекламу ↑



    Download


     
    
    
    I will first give the following "Rhythm Figures", then list the order in
    which they come.
    
    Rhy. Fig. 1*
                                                                  H P       **harm
    -7----(7-------------------(7-----10-|-10-----10---------------------0-0--12-|
    -7----)7--7-----------7----)7-----8--|-10---------------7-8-7^8^7----0-0--0--|
    -7--7-(7-----7-----7-------(7--------|-11--------11-----7-7-7-----9--9-11-9--|
    -9--9-----9----------------)9--------|-12--12--------------------------------|
    -9-----------------------------------|-12------------12----------------------|
    -7--------------7--------7-----7-----|-10------------------------------------|
    *2 gtrs. arr. for 1                                 **harm. on 1st string only
    
       sl.                sl.                                  H P
    -----------------7--7--/12-|--12-----12----------8--7--10-7^10^7--|
    -----------8--8------------|--12---------12--12--0--5--0-------7--|
    -----------9--9--7--7--/9--|--12---------9---9---0-----0----------|
    ---------------------------|--14--14-----9------------------------|
    ----/9--7------------------|--14---------10-----------------------|
    --0------------------------|--0---0-------------------------------|
                                                      (end Rhy. Fig. 1)
    
    
    
    Rhy. Fig. 2
    
    ------------------------------------|
    -2--2--x-x-------|-3--3--x-x--32-|-2--2--x-x-------|-5--5---53--32-|
    -3--3--x-x-------|-4--4--x-x--43-|-3--3--x-x-------|-6--6-x-64--43-|
    -4--4--x-x--2--4-|-5--5--x-x--54-|-4--4--x-x--2--4-|-7--7-x-75--54-|
    -4--4--x-x--2--4-|-5--5--x-x--54-|-4--4--x-x--2--4-|-7--7---75--54-|
    -2--2-------0--2-|-3--3-------32-|-2--2-------0--2-|-5--5---53--32-|
                                                            (end Rhy. Fig. 2)
    
    
    
    Rhy. Fig. 3
    
    -----------------------------|
    -----------------------------|
    ---------------------------|--%----------|
    -----------------------------|
    --4-4-4-5-5-5-4-4-4-7-7-7--|-----|--4-5-4-7-4-5-4-7--|
    --2-2-2-3-3-3-2-2-2-5-5-5--|-----|--2-3-2-5-2-3-2-5--|
     pm----------------------|         pm  pm  pm  pm
    
    -----------------------------------|
    -----------------------------------|
    -----------------------------------|
    -----------------------------------|
    -----------------------------------|
    --2-3-2-5-2-3-2-5-2-3-2-5-2^3-2^3--|
     pm------------------------------|
                       (end Rhy. Fig. 3)
    
    
    Rhy. Fig. 4
    
    --------------------------------|---------|
    --------------------------------|---------|
    --11-6-----4--6--|--7--4-----4--6--|--6--3-----3--3--|--2------|
    --------------------------------|---------|
    --9--4-----2--4--|--5--2-----2--4--|--4--1-----1--1--|--0------|
    --------------------------------|---------|
                                                      (end Rhy. Fig. 4)
    
    
    Rhy. Fig. 5
    
    -----------------------------|
    -----------------------------|
    -----------------------------|
    --------2-----5--4--2--|-----2--|-----x--x--6--4--4--|
    --4--4--0--4--3--2--0--|--4--0--|--4--x--x--4--3--2--|
    --2--2-----2-----------|--2-----|--2--x--x-----------|
     pm---|   pm             pm       pm
    
    ----------------------------------|
    ----------------------------------|
    -----------------------|----------2-----------|
    --------2-----5--4--2--|----x-x-x-2--|-----x--x--6--4--4--|
    --4--4--0--4--3--2--0--|--4-x-x-x-0--|--4--x--x--4--3--2--|
    --2--2-----2-----------|--2-x-x-x----|--2--x--x-----------|
     pm---|   pm             pm            pm
    
    
    Rhy. Fig. 6
       full   ~~~~~~~  full  ~~   rake  full ~~~~   ~~~       ~~~~ H P sl. H P
    ---/-------|-------/-------|-------/---------------------------|
    -5 

    Тональность:

    Нет текста!



    Назад
    Рекомендуем посмотреть другие песни исполнителя «Metallica»:

    • Комментарии Facebook ()
    • Комментарии ВКонтакте



    Добавить в Избранное Браузера
    Сохранить здесь Очистить


    x

    0


    +
    -

    +
    -

    -

    Авторизация





    Зарегистрироваться

    M

    Дата и время

    • 01:19:54
       

    Социальные ссылки


    Наши приложения

    • Muzbank App Play Market
    • Muzbank Amazon App