MUZBANK



A Most Complete Bank Of Music Information

МУЗЫКАЛЬНО-ИНФОРМАЦИОННЫЙ БАНК








    MMidtown • Such A Person (аккорды и текст - chords & lyrics)


    278

    Print

    Видео «Such A Person (Midtown)»

    Видео клипы к песне подбираются автоматически сайтом youtube. Возможны некоторые несоответствия клипов песне.

    ↑ Спрятать рекламу ↑






     
    
    
    Verse:
    
    ------------------------------------------------------------------------------------------|
    ------------------------------------------------------------------------------------------|
    ------------------------------------------------------------------------------------------|
    -----7------7-----7----7------4------4------2-----2---------------------------------------|
    -5-5----5-5---4-4--4-4----2-2-----2-2----0-0--0-0-------5-----5-----5-----5-----5-----5-7-|
    ----------------------------------------------------3-3---3-3---2-2---2-2---3-3---3-3---5-|
    
    chorus:
    
    -------------|
    -------------|
    -------------|
    -----7-7-----|
    -2-5-5-4-2-5-|
    -0-3-----0-3-|
    
    I dunno how to play the brigde, sorry
    
    For the outro look up god gave rock and roll to you by KISS.
    
    comment, suggestion, death threats - email at skitso6000@hotmail.com or
    
    theclassicbombastic@hotmail.com
     

    Тональность:

    Нашли ошибку?



    Назад
    Рекомендуем посмотреть другие песни исполнителя «Midtown»:

    • Комменты Fb ()
    • Комменты ВК



    Добавить в Избранное Браузера
    Сохранить здесь Очистить


    x

    0


    +
    -

    +
    -

    -

    Авторизация





    Зарегистрироваться

    M

    Дата и время

    • 05:46:36
       

    Социальные ссылки


    Наши приложения

    • Muzbank App Play Market
    • Muzbank Amazon App