MUZBANK



A Most Complete Bank Of Music Information

МУЗЫКАЛЬНО-ИНФОРМАЦИОННЫЙ БАНК

Поиск по сайту







    MMillencolin • A Bit Of Muslin (аккорды и текст - chords & lyrics)


    184

    Print

    Видео «A Bit Of Muslin (Millencolin)»

    Видео клипы к песне подбираются автоматически сайтом youtube. Возможны некоторые несоответствия клипов песне.

    ↑ Спрятать рекламу ↑



    Download


     
    
    
    A BIT OF MUSLIN - Millencolin
    
    
    intro:
    e|-5-5-8-8-6-6---8|x4
    B|-5-5-8-8-6-6---8|
    G|-6-6-9-9-7-7---9|
    D|----------------|
    A|----------------|
    E|----------------|
    
    
    verse:
    e|-5-5-8-8-6-6---8|
    B|-5-5-8-8-6-6---8|
    G|-6-6-9-9-7-7---9|
    D|----------------|
    A|----------------|
    E|----------------|
    
    
    
    
    chorus:
    e|---------------------------------------------------------------|
    B|---------------------------------------------------------------|
    G|-7-7-7-7-7-7-7-7---------5-5-5-5--7-7-7-7-7-7-7---------5-5-5-5|
    D|-7-7-7-7-7-7-7-7-3-3-3-3-5-5-5-5--7-7-7-7-7-7-7-3-3-3-3-5-5-5-5|
    A|-5-5-5-5-5-5-5-5-3-3-3-3-3-3-3-3--5-5-5-5-5-5-5-3-3-3-3-3-3-3-3|
    E|-----------------1-1-1-1------------------------1-1-1-1--------|
    
    
    e|------------------------------------------------------------------------|
    B|------------------------------------------------------------------------|
    G|---------5-5-5-5---------5-5-5-5---------5-5-5-5-------------5-5-5-5-5-5|
    D|-5-5-5-5-5-5-5-5-3-3-3-3-5-5-5-5-5-5-5-5-5-5-5-5-3-3-3-3-3-3-5-5-5-5-5-5|
    A|-5-5-5-5-3-3-3-3-3-3-3-3-3-3-3-3-5-5-5-5-3-3-3-3-3-3-3-3-3-3-3-3-3-3-3-3|
    E|-3-3-3-3---------1-1-1-1---------3-3-3-3---------1-1-1-1-1-1------------|
    
    
    verse:
    e|-5-5-8-8-6-6---8|
    B|-5-5-8-8-6-6---8|
    G|-6-6-9-9-7-7---9|
    D|----------------|
    A|----------------|
    E|----------------|
    
    
    chorus:
    e|---------------------------------------------------------------|
    B|---------------------------------------------------------------|
    G|-7-7-7-7-7-7-7-7---------5-5-5-5--7-7-7-7-7-7-7---------5-5-5-5|
    D|-7-7-7-7-7-7-7-7-3-3-3-3-5-5-5-5--7-7-7-7-7-7-7-3-3-3-3-5-5-5-5|
    A|-5-5-5-5-5-5-5-5-3-3-3-3-3-3-3-3--5-5-5-5-5-5-5-3-3-3-3-3-3-3-3|
    E|-----------------1-1-1-1------------------------1-1-1-1--------|
    
    
    e|------------------------------------------------------------------------|
    B|------------------------------------------------------------------------|
    G|---------5-5-5-5---------5-5-5-5---------5-5-5-5-------------5-5-5-5-5-5|
    D|-5-5-5-5-5-5-5-5-3-3-3-3-5-5-5-5-5-5-5-5-5-5-5-5-3-3-3-3-3-3-5-5-5-5-5-5|
    A|-5-5-5-5-3-3-3-3-3-3-3-3-3-3-3-3-5-5-5-5-3-3-3-3-3-3-3-3-3-3-3-3-3-3-3-3|
    E|-3-3-3-3---------1-1-1-1---------3-3-3-3---------1-1-1-1-1-1------------|
    
    
    
    solo:
    e|------------1411------------12----1414-141414141414---|
    B|-1212-1212------11-----1012-12---------141414141414-14|
    G|-1313-1313---------1012-------------------------------|
    D|-------------------------------12---------------------|
    A|------------------------------------------------------|
    E|------------------------------------------------------|
    
    
    
    chorus:
    e|---------------------------------------------------------------|
    B|---------------------------------------------------------------|
    G|-7-7-7-7-7-7-7-7---------5-5-5-5--7-7-7-7-7-7-7---------5-5-5-5|
    D|-7-7-7-7-7-7-7-7-3-3-3-3-5-5-5-5--7-7-7-7-7-7-7-3-3-3-3-5-5-5-5|
    A|-5-5-5-5-5-5-5-5-3-3-3-3-3-3-3-3--5-5-5-5-5-5-5-3-3-3-3-3-3-3-3|
    E|-----------------1-1-1-1------------------------1-1-1-1--------|
    
    
    e|--------------------------------------------------------------------------|
    B|--------------------------------------------------------------------------|
    G|---------5-5-5-5---------5-5-5-5---------5-5-5-5-------------5-5-5-5-5-5-7|
    D|-5-5-5-5-5-5-5-5-3-3-3-3-5-5-5-5-5-5-5-5-5-5-5-5-3-3-3-3-3-3-5-5-5-5-5-5-7|
    A|-5-5-5-5-3-3-3-3-3-3-3-3-3-3-3-3-5-5-5-5-3-3-3-3-3-3-3-3-3-3-3-3-3-3-3-3-5|
    E|-3-3-3-3---------1-1-1-1---------3-3-3-3---------1-1-1-1-1-1--------------|
    
    
    =============================================================================
     

    Тональность:

    Нет текста!



    Назад
    Рекомендуем посмотреть другие песни исполнителя «Millencolin»:

    • Комментарии Facebook ()
    • Комментарии ВКонтакте



    Добавить в Избранное Браузера
    Сохранить здесь Очистить


    x

    0


    +
    -

    +
    -

    -

    Авторизация





    Зарегистрироваться

    M

    Дата и время

    • 17:23:53
       

    Социальные ссылки


    Наши приложения

    • Muzbank App Play Market
    • Muzbank Amazon App