MUZBANK



A Most Complete Bank Of Music Information

МУЗЫКАЛЬНО-ИНФОРМАЦИОННЫЙ БАНК

Поиск по сайту







    MMillencolin • Fuel To The Flame (аккорды и текст - chords & lyrics)


    199

    Print

    Видео «Fuel To The Flame (Millencolin)»

    Видео клипы к песне подбираются автоматически сайтом youtube. Возможны некоторые несоответствия клипов песне.

    ↑ Спрятать рекламу ↑



    Download


     
    
    
    Song: Fuel to the Flame
    Artist: Millencolin
    Album: Home from Home
    Tabbed by: Christian / silent_warrior_@hotmail.com
    
    x - Mute string
    PM - Palm mute
    
    Tuning: Standard (E A D G B E)
    
    Intro
    |-------------------|
    |-------------------|
    |-7-x---------------| x1
    |-7-x-5-5-7---x-x-x-|
    |-5-x-5-5-7---x-x-x-|
    |-----3-3-5---x-x-x-|
    
    Verse
    |------------------------|
    |------------------------|
    |-7-7-x-----x-7-7-7--7-7-| x4
    |-7-7-x-5-5-x-7-7-7--7-7-|
    |-5-5-x-5-5-x-5-5-5--5-5-|
    |-------3-3--------------|
    
    Chorus
    |--------------------------------------------------------|
    |--------------------------------------------------------|
    |---------5-5-5-5-7-7-7-7-7-7---------5-5-5-5-7-7--7-7---| x2
    |-5-5-5-5-5-5-5-5-7-7-7-7-7-7-5-5-5-5-5-5-5-5-7-7--7-7-7-|
    |-5-5-5-5-3-3-3-3-5-5-5-5-5-5-5-5-5-5-3-3-3-3-5-5--5-5-7-|
    |-3-3-3-3---------------------3-3-3-3------------------5-|
    
    |-------------------------------------------------------|
    |-------------------------------------------------------|
    |------------7-7--7-7--------------7------------------7-| x1
    |-5-5--5-5-7-7-7--7-7-7-5-5--5-5-7-7-x-5-5-7---x-x-x----|
    |-5-5--5-5-7-5-5--5-5-7-5-5--5-5-7-5-x-5-5-7---x-x-x--5-|
    |-3-3--3-3-5----------5-3-3--3-3-5---x-3-3-5---x-x-x----|
    
    Verse
    |------------------------|
    |------------------------|
    |-7-7-x-----x-7-7-7--7-7-| x2
    |-7-7-x-5-5-x-7-7-7--7-7-|
    |-5-5-x-5-5-x-5-5-5--5-5-|
    |-------3-3--------------|
    
    Chorus
    |--------------------------------------------------------|
    |--------------------------------------------------------|
    |---------5-5-5-5-7-7-7-7-7-7---------5-5-5-5-7-7--7-7---| x2
    |-5-5-5-5-5-5-5-5-7-7-7-7-7-7-5-5-5-5-5-5-5-5-7-7--7-7-7-|
    |-5-5-5-5-3-3-3-3-5-5-5-5-5-5-5-5-5-5-3-3-3-3-5-5--5-5-7-|
    |-3-3-3-3---------------------3-3-3-3------------------5-|
    
    |------------------------------------|
    |------------------------------------|
    |------------7-7--7-7--------------7-| x1
    |-5-5--5-5-7-7-7--7-7-7-5-5--5-5-7---|
    |-5-5--5-5-7-5-5--5-5-7-5-5--5-5-7-5-|
    |-3-3--3-3-5----------5-3-3--3-3-5---|
    
    Bridge - Guitar 1 (play this as many times as needed)
    |---------------------------------------------------------------------|
    |---------------------------------------------------------------------|
    |-7-7-7-7-7-7-7-7-7-7-7-7-7-7-7-7-7-7-7-7-7-7-7-7-7-7-7-7-7-7-7-7-7-7-| 
    |-7-7-7-7-7-7-7-7-7-7-7-7-7-7-7-7-7-7-7-7-7-7-7-7-7-7-7-7-7-7-7-7-7-7-|
    |-5-5-5-5-5-5-5-5-5-5-5-5-5-5-5-5-5-5-5-5-5-5-5-5-5-5-5-5-5-5-5-5-5-5-|
    |---------------------------------------------------------------------|
    PM-------------------------------------------------------------------
    
    Bridge - Guitar 2
    |------------------------|
    |------------------------|
    |-7---9---12---7---7-7-7-| x1
    |------------------------|
    |-5---7---10---5---5-5-5-|
    |------------------------|
    
    |-------------------------------------------------------------------------------------|
    |-------------------------------------------------------------------------------------|
    |-7-7-7-7-7-7-7-7-7-7-7-7-9-9-9-9-9-9-9-9-9-9-9-9-12-12-12-12-12-12-12-12-12-12-12-12-| x1
    |-------------------------------------------------------------------------------------|
    |-5-5-5-5-5-5-5-5-5-5-5-5-7-7-7-7-7-7-7-7-7-7-7-7-10-10-10-10-10-10-10-10-10-10-10-10-|
    |-------------------------------------------------------------------------------------|
    
    |-------------------------|
    |-------------------------|
    |-7-7-7-7-7-7-7-7-7-7-7-7-| x1
    |-------------------------|
    |-5-5-5-5-5-5-5-5-5-5-5-5-|
    |-------------------------|
    
    Chorus
    |--------------------------------------------------------|
    |--------------------------------------------------------|
    |---------5-5-5-5-7-7-7-7-7-7---------5-5-5-5-7-7--7-7---| x4
    |-5-5-5-5-5-5-5-5-7-7-7-7-7-7-5-5-5-5-5-5-5-5-7-7--7-7-7-|
    |-5-5-5-5-3-3-3-3-5-5-5-5-5-5-5-5-5-5-3-3-3-3-5-5--5-5-7-|
    |-3-3-3-3---------------------3-3-3-3------------------5-|
    
    End
    |----------------------------|
    |----------------------------|
    |----------------------------| x1
    |-5-5-5-5-5-5-7-7-7-7-7-7--5-|
    |-5-5-5-5-5-5-7-7-7-7-7-7--5-|
    |-3-3-3-3-3-3-5-5-5-5-5-5--3-|
     

    Тональность:

    Нет текста!



    Назад
    Рекомендуем посмотреть другие песни исполнителя «Millencolin»:

    • Комментарии Facebook ()
    • Комментарии ВКонтакте



    Добавить в Избранное Браузера
    Сохранить здесь Очистить


    x

    0


    +
    -

    +
    -

    -

    Авторизация





    Зарегистрироваться

    M

    Дата и время

    • 01:22:13
       

    Социальные ссылки


    Наши приложения

    • Muzbank App Play Market
    • Muzbank Amazon App