MUZBANK



A Most Complete Bank Of Music Information

МУЗЫКАЛЬНО-ИНФОРМАЦИОННЫЙ БАНК

Поиск по сайту







    MMillencolin • Punk Rock Rebel (аккорды и текст - chords & lyrics)


    201

    Print

    Видео «Punk Rock Rebel (Millencolin)»

    Видео клипы к песне подбираются автоматически сайтом youtube. Возможны некоторые несоответствия клипов песне.

    ↑ Спрятать рекламу ↑



    Download


     
    
    
    Song: Punk Rock Rebel
    Artist: Millencolin
    Album: Home From Home
    Tabbed by: Christian / silent_warrior_@hotmail.com
    
    Tuning: Standard (E A D G B E)
    
    / - Slide up
    p - Pull off
    x - Mute string
     - Slide down
    ^ - Bend string
    () - Play while bending string
    
    
    
    Intro - Guitar 1
    |---------------------------------------|
    |----9------------10-10-----------------|
    |-/9---9p7-5-7-5--------12-9-9-12--12p9-|x4
    |---------------------------------------|
    |---------------------------------------|
    |---------------------------------------|
    
    
    Intro - Guitar 2
    |----------|
    |-9-9--8-8-|
    |-9-9--9-9-| x8
    |----------|
    |----------|
    |----------|
    
    
    Verse
    |---------------------------------------|
    |-9-----9-8------------8-----8-9--------|
    |-9-----9-9------------9-----9-9--------| x4
    |---x-x-----x-x--x-x-x---x-x-----x-x--x-|
    |---x-x-----x-x--x-x-x---x-x-----x-x--x-|
    |---x-x-----x-x--x-x-x---x-x-----x-x--x-|
    
    
    Fill
    |-------------------|
    |-8-8-8-8-8-8-8-8-8-|
    |-9-9-9-9-9-9-9-9-9-| x1
    |-------------------|
    |-------------------|
    |-------------------|
    
    Chorus
    |------------------|
    |-9-9-9-9--8-8-8-8-|
    |-9-9-9-9--9-9-9-9-| x3
    |------------------|
    |------------------|
    |------------------|
    
    
    |-------------------|
    |-9-9-9-9-9-9-9-9-9-|
    |-9-9-9-9-9-9-9-9-9-| x1
    |-------------------|
    |-------------------|
    |-------------------|
    
    Guitar 1
    |---------------------------------------|
    |----9------------10-10-----------------|
    |-/9---9p7-5-7-5--------12-9-9-12--12p9-| x2
    |---------------------------------------|
    |---------------------------------------|
    |---------------------------------------|
    
    
    Guitar 2
    |----------|
    |-9-9--8-8-|
    |-9-9--9-9-| x4
    |----------|
    |----------|
    |----------|
    
    
    Verse
    |-------------------------|
    |-8-------9--8--9--9-|
    |-9-------9--9--8--9-| x1
    |-------------------------|
    |-------------------------|
    |-------------------------|
    
    
    |---------------------------------------|
    |-9-----9-8------------8-----8-9--------|
    |-9-----9-9------------9-----9-9--------| x2
    |---x-x-----x-x--x-x-x---x-x-----x-x--x-|
    |---x-x-----x-x--x-x-x---x-x-----x-x--x-|
    |---x-x-----x-x--x-x-x---x-x-----x-x--x-|
    
    
    Fill
    |-------------------|
    |-8-8-8-8-8-8-8-8-8-|
    |-9-9-9-9-9-9-9-9-9-| x1
    |-------------------|
    |-------------------|
    |-------------------|
    
    Chorus
    |------------------|
    |-9-9-9-9--8-8-8-8-|
    |-9-9-9-9--9-9-9-9-| x3
    |------------------|
    |------------------|
    |------------------|
    
    
    |-------------------|
    |-8-8-8-8-8-8-8-8-8-|
    |-9-9-9-9-9-9-9-9-9-| x1
    |-------------------|
    |-------------------|
    |-------------------|
    
    
    Bridge (play the 12s clean)
    |---------12-|
    |-9-----12---|
    |--9---------| x1
    |---9--------|
    |------------|
    |------------|
    
    
    |----------------------|
    |-9--9-8-8--9-8-8--9-9-|
    |-9--9-9-9--9-9-9--8-9-| x15
    |----------------------|
    |----------------------|
    |----------------------|
    
    
    Fill
    |-------------------|
    |-8-8-8-8-8-8-8-8-8-|
    |-9-9-9-9-9-9-9-9-9-| x1
    |-------------------|
    |-------------------|
    |-------------------|
    
    
    Chorus
    |------------------|
    |-9-9-9-9--8-8-8-8-|
    |-9-9-9-9--9-9-9-9-| x3
    |------------------|
    |------------------|
    |------------------|
    
    
    |-------------------|
    |-8-8-8-8-8-8-8-8-8-|
    |-9-9-9-9-9-9-9-9-9-| x1
    |-------------------|
    |-------------------|
    |-------------------|
    
    
    |-----------------|
    |-9-9-9-9-8-8-8-8-|
    |-9-9-9-9-9-9-9-9-| x3
    |-----------------|
    |-----------------|
    |-----------------|
    
    
    |-------------------|
    |-8-8-8-8-8-8-8-8-8-|
    |-9-9-9-9-9-9-9-9-9-| x1
    |-------------------|
    |-------------------|
    |-------------------|
    
    
    Outro - Guitar 1
    |---------------------------------------|
    |----9------------10-10-----------------|
    |-/9---9p7-5-7-5--------12-9-9-12--12p9-| Play till end
    |---------------------------------------|
    |---------------------------------------|
    |---------------------------------------|
    
    
    Outro - Guitar 2
    |-9^-(9)-(9)-(9)-(9)-|
    |--------------------|
    |--------------------| x8
    |--------------------|
    |--------------------|
    |--------------------|
    
    
    |-12^-(12)-(12)-(12)-(12)-|
    |-------------------------|
    |-------------------------| x3
    |-------------------------|
    |-------------------------|
    |-------------------------|
     

    Тональность:

    Нет текста!



    Назад
    Рекомендуем посмотреть другие песни исполнителя «Millencolin»:

    • Комментарии Facebook ()
    • Комментарии ВКонтакте



    Добавить в Избранное Браузера
    Сохранить здесь Очистить


    x

    0


    +
    -

    +
    -

    -

    Авторизация





    Зарегистрироваться

    M

    Дата и время

    • 23:32:29
       

    Социальные ссылки


    Наши приложения

    • Muzbank App Play Market
    • Muzbank Amazon App