MUZBANK



A Most Complete Bank Of Music Information

МУЗЫКАЛЬНО-ИНФОРМАЦИОННЫЙ БАНК

Поиск по сайту







    MMillion Dead • Macgyver (аккорды и текст - chords & lyrics)


    220

    Print

    Видео «Macgyver (Million Dead)»

    Видео клипы к песне подбираются автоматически сайтом youtube. Возможны некоторые несоответствия клипов песне.

    ↑ Спрятать рекламу ↑



    Download



     
    
    
    MACGYVER
    
    (standard tuning)
    
    
    intro riff:
    
    6E -0--0--0--0--0---0-0-0-0-0-0--0-0-0-0-0--0-0-0-0-0-0--0-0-0-0-0-0-0-0-0--0-0-0-0-0-0-0-0-0--|
    5B -0--0--0--0--0---0-0-0-0-0-0--0-0-0-0-0--0-0-0-0-0-0--1-1-1-1-1-1-1-1-1--1-1-1-1-1-1-1-1-1--|
    4G -9--9--9--9--9---7-7-7-7-7-7--5-5-5-5-5--4-4-4-4-4-4--0-2-2-0-2-0-2-0-2--0-2-2-0-2-0-2-0-2--|
    3D -10-10-10-10-10--9-9-9-9-9-9--7-7-7-7-7--5-5-5-5-5-5--3-3-3-3-3-3-3-3-3--3-3-3-3-3-3-3-3-3--|
    2A -0--0--0--0--0---0-0-0-0-0-0--0-0-0-0-0--0-0-0-0-0-0--3-3-3-3-3-3-3-3-3--3-3-3-3-3-3-3-3-3--|
    
    
    verse riff:
    
    6E -0---0-----0----14-|
    5B -0---0-----12---12-|
    4G -9---7-----9----11-|
    3D -x---x---9^10---0--|
    2A -7---9-----0----0--|
    1E -0-----------------|
    
    
    pre-chorus riff:
    
    2A -7^9-----7^9-7^9-----7^9-|
    1E -----0-0---------0-0-----|
    
    
    chugging:
    
    3D -2-2-2-2-2-2-2-2-2-2-2-2-|
    2A -2-2-2-2-2-2-2-2-2-2-2-2-|
    1E -0-0-0-0-0-0-0-0-0-0-0-0-|
    
    
    bridge riff:
    
    5B ----------12-12----------------------------|
    4G -9--9--9--9--9--11-11-11-11-12-12-12-12-12-|
    3D -10-10-10-10-10-0--0--0--0--0--0--0--0--0--|
    2A -0--0--0--0--0--0--0--0--0--0--0--0--0--0--|
    
    
    heavy riff:
    
    3D -4-4-4-4-4-4-4-4-4-4-4-4-4-4-4-4-4-4-2-----------|
    2A -4-4-4-4-4-4-4-4-4-4-4-4-4-4-4-4-4-4---2-0-2-3-2-|
    1E -0-2-2-2-0-2-0-2-2-2-0-2-0-2-2-2-0-2-------------|
    
    
    song structure:
    
    intro riff x2
    first half of intro riff
    verse riff, plucking through the chords, x4
    pre-chorus riff x16
    verse riff, hitting chords heavily x2
    chugging, moving from palm-muted to open
    bridge riff x8
    intro riff x2
    gentle strum through chords of first half of intro riff
    heavy riff x4
    break (on the nod)
    heavy riff x 2 (palm muted second time)
    break - first half of heavy riff on its own
    intro riff played heavy x2
    end
     

    Тональность:

    Нет текста!



    Назад
    Рекомендуем посмотреть другие песни исполнителя «Million Dead»:

    • Комментарии Facebook ()
    • Комментарии ВКонтакте



    Добавить в Избранное Браузера
    Сохранить здесь Очистить


    x

    0


    +
    -

    +
    -

    -

    Авторизация





    Зарегистрироваться

    M

    Дата и время

    • 23:14:49
       

    Социальные ссылки


    Наши приложения

    • Muzbank App Play Market
    • Muzbank Amazon App