MUZBANK



A Most Complete Bank Of Music Information

МУЗЫКАЛЬНО-ИНФОРМАЦИОННЫЙ БАНК

Поиск по сайту







    MMillion Dead • Smiling At Strangers On Trains (аккорды и текст - chords & lyrics)


    132

    Print

    Видео «Smiling At Strangers On Trains (Million Dead)»

    Видео клипы к песне подбираются автоматически сайтом youtube. Возможны некоторые несоответствия клипов песне.

    ↑ Спрятать рекламу ↑



    Download



     
    
    
    SMILING AT STRANGERS ON TRAINS
    
    (standard tuning)
    
    
    verse riff:
    
    6E -0-0-0-0-0-0-0-0-0-7-7-7---------------------|
    5B -5-5-5-7-7-7-8-8-8-0-0-0---------------------|
    4G -0-0-0-0-0-0-0-0-0-0-0-0-7-7-7-7-11-11-11-11-|
    3D -5-5-5-7-7-7-9-9-9-------0-0-0-0-0--0--0--0--|
    2A -3-3-3-5-5-5-7-7-7-------0-0-0-0-12-12-12-12-|
    
    
    pre-chorus riff 1:
    
    4G ----------0-|
    3D -/9-9---9---|
    2A ------0-----|
    
    
    pre-chorus riff 2:
    
    4G ------7---9--------7---9--------7---9-------9---9---7-|
    3D -/9-9---9-----/9-9---9-----/9-9---9---9---9---9---9---|
    2A --0------------0------------0-----------0-------------|
    
    
    chorus riff:
    
    5B ------------------7-8-7-0-------|
    4G ----------7-9-7-0---------7-9-7-|
    3D -/9-9---9-----------------------|
    2A --0---0-------------------------|
    
    
    chorus ending:
    
    5B ------0-0-0-0-|
    4G ------x-x-x-x-|
    3D ------9-9-9-9-|
    2A --------------|
    1E -/8-8---------|
    
    
    bridge riff
    
    5B ------0-0-0-0-----0-0-0-0-------0-0-0-0-------0--0--0--0--|
    4G ------x-x-x-x-----x-x-x-x-------x-x-x-x-------x--x--x--x--|
    3D ------9-9-9-9-----9-9-9-9-------9-9-9-9-------10-12-10-10-|
    2A ----------------------------------------------------------|
    1E -/8-8---------8-8---------10-10---------12-12-------------|
    
    
    outro riff:
    
    6E -0-  -0--  -0--|
    5B -0-  -0--  -0--|
    4G -x-  -x--  -x--|
    3D -9-  -9--  -10-|
    2A -x-  -x--  -x--|
    1E -8-  -10-  -12-|
    
    
    song structure:
    
    verse riff x4
    pre-chorus riff 1 x4
    pre-chorus riff 2
    chorus riff x3, then chorus ending x2
    chorus riff x3, then chorus ending x4
    verse riff x4
    chorus riff x3, then chorus ending x2
    chorus riff x3
    bridge riff x4, ending with a stop on the snare fill
    outro riff, where you hammer the chords in the same pattern as the bridge riff x8
    end
     

    Тональность:

    Нет текста!



    Назад
    Рекомендуем посмотреть другие песни исполнителя «Million Dead»:

    • Комментарии Facebook ()
    • Комментарии ВКонтакте



    Добавить в Избранное Браузера
    Сохранить здесь Очистить


    x

    0


    +
    -

    +
    -

    -

    Авторизация





    Зарегистрироваться

    M

    Дата и время

    • 13:39:14
       

    Социальные ссылки


    Наши приложения

    • Muzbank App Play Market
    • Muzbank Amazon App