MUZBANK



A MOST COMPLETE BANK OF MUSIC INFORMATION

МУЗЫКАЛЬНО-ИНФОРМАЦИОННЫЙ БАНК







    MMisc • Area Code Outer Space (аккорды и текст - chords & lyrics)


    251

    Print

    Видео «Area Code Outer Space (Misc)»

    Видео клипы к песне подбираются автоматически сайтом youtube. Возможны некоторые несоответствия клипов песне.

    ↑ Спрятать рекламу ↑





     
    
    
    for lead jus improvise with G-major/E-natural minor scale
    
    intro paly while slowly fading volume
    
    e|-2-5-2-3-2-5-2-3-2-5-3-5|
    B|------------------------|
    G|------------------------|
    D|------------------------|
    A|------------------------|
    E|------------------------|
    
      when volume is completely faded then turn it to the max
    
    e|----------------------------------|
    B|----------------------------------|
    G||---------------------------------|
    D|-12-12-0-10-10-0-9-9-7-7-0-5-5-0-4|
    A|-10-10-0-8--8--0-7-7-5-5-0-3-3-0-2|
    E|----------------------------------|
    
    
    
    
    rythm
    e|----------------------
    b|----------------------
    g|----------------------
    d|-4-4-0-2-2-0-4-4-0----
    a|-2-2-0-0-0-0-2-2-0-2-2    play x5
    e|-------------------0-0
    
        prechorus
    e|------------------
    b|------------------
    g|------------------
    d|------------------
    a|-7-7-0-5-5-----2-2
    e|-5-5-0-3-3-3-2-0-0
    
    chourus
    
    E--------
    b--------
    g--------   x3
    d-5-4-2--
    a-3-2-0-2
    e-------0
    
    Chours out
    
    e-----------------0-2
    b-------------0-1-0-1
    g---------0-2-0-2----
    d-----0-2-0-2--------
    a-0-2-0-2------------
    e-0-2----------------
    
    
    outro
    
    E----------------------------
    b----------------------------
    g----------------------------
    d-0-5-7-0-5-7-0-5-7-0-5-7-2--
    a-------------------------0-2
    e---------------------------0
     

    Тональность:

    Это должно быть в ТОП-листе! - Топ-лист композиций



    Назад
    Рекомендуем посмотреть другие песни исполнителя «Misc»:

    • Комменты Fb ()
    • Комменты ВК



    Добавить в Избранное Браузера
    Сохранить здесь Очистить


    x

    0


    +
    -

    +
    -

    -

    Авторизация





    Зарегистрироваться

    M

    Дата и время

    • 19:53:15
       

    Социальные ссылки


    Наши приложения

    • Muzbank App Play Market
    • Muzbank Amazon App