MUZBANK



A Most Complete Bank Of Music Information

МУЗЫКАЛЬНО-ИНФОРМАЦИОННЫЙ БАНК

Поиск по сайту







    MMisc Computer Games • Super Mario Brothers - Under (аккорды и текст - chords & lyrics)


    227

    Print

    Видео «Super Mario Brothers - Under (Misc Computer Games)»

    Видео клипы к песне подбираются автоматически сайтом youtube. Возможны некоторые несоответствия клипов песне.

    ↑ Спрятать рекламу ↑



    Download


     
    
    
    this is how it really goes you guys, this is 100% correct, if you say otherwise
    then go kill yourself.  i also have 2 different ways of doin the first parts, you
    can start it off the lazy way, or you can jus go all out and play it for real,
    your choice, but the real way is more correct eventhough they both sound good.
    
    lazy person way (not 100%, but still sounds good)
                    2x                   2x
    G|----------------|   |----------------|
    D|----------------|   |----------------|
    A|--3-3-0-0-1-1---|   |----------------|
    E|----------------|   |--3-3-0-0-1-1---|
    
    Real way 100% correct, a lil harder
                  2x                  2x
    G|---7---4---5--|   |--------------|
    D|--------------|   |---5---2---3--|
    A|--5---2---3---|   |--------------|
    E|--------------|   |--3---0---1---|
    
    Then continue on with this
    G|------------------------------5-4-3--------------|
    D|-----------------------6-5-4---------3-----------|
    A|--8-7-6-5-8-7-----6-5-------------------4-3-2-1--|
    E|--------------6-5--------------------------------|
    
    Revised tab by Blind
    Original tab by Leigh
     

    Тональность:

    Нет текста!



    Назад
    Рекомендуем посмотреть другие песни исполнителя «Misc Computer Games»:

    • Комментарии Facebook ()
    • Комментарии ВКонтакте



    Добавить в Избранное Браузера
    Сохранить здесь Очистить


    x

    0


    +
    -

    +
    -

    -

    Авторизация





    Зарегистрироваться

    M

    Дата и время

    • 17:49:00
       

    Социальные ссылки


    Наши приложения

    • Muzbank App Play Market
    • Muzbank Amazon App