MUZBANK



A Most Complete Bank Of Music Information

МУЗЫКАЛЬНО-ИНФОРМАЦИОННЫЙ БАНК

Поиск по сайту







    MMisc • Dueling Banjos (аккорды и текст - chords & lyrics)


    253

    Print

    Видео «Dueling Banjos (Misc)»

    Видео клипы к песне подбираются автоматически сайтом youtube. Возможны некоторые несоответствия клипов песне.

    ↑ Спрятать рекламу ↑



    Download


     
    
    
    DUELING BANJOS (FROM DELIVERANCE)
    
    Transcribed by Victor Ochoa
     
    
    
     Intro
      Q=80
      G                              G       C/G
     6/4                                  4/4
      Gtr I
    |---------------|--------------------|--------------|
    |---------------|--------------------|--------------|
    |-^0------------|--------------------|--------------|
    |-^0------------|----------------0-0-|-0-2-0--------|
    |-^2------------|----------------2-2-|-2-3-2--------|
    |-^3------------|----------------3-3-|-3-3-3--------|
    |
    | Gtr II
    |---------------|--------------------|--------------|
    |---------------|-----0--------------|--------------|
    |---------------|-^0-----------------|--------------|
    |---------------|-^0-----------------|--------------|
    |---------------|--------0-----------|-----------0--|
    
    
      G GsGs4   G
    |---------------|----------------|----------------|
    |-----------0-1-|-3--------------|----------------|
    |---------------|---4-5-2-4-0-2--|-(2)------------|
    |---------------|----------------|----------------|
    |---------------|----------------|----------------|
    |---------------|----------------|----------------|
    |
    |-0-0-0---------|----------------|----------------|
    |-0-1-0---------|----------------|-----------0-1--|
    |-0-0-0---------|----------------|----------------|
    |---------------|----------------|----------------|
    |-0-0-0---------|----------------|----------------|
    
    
                                 G
    |----------------|---------------|----------------|
    |----------------|-----------0-1-|-3-0-1---0------|
    |----------------|---------------|-------2---0-2--|
    |----------------|---------------|----------------|
    |----------------|---------------|----------------|
    |----------------|---------------|----------------|
    |
    |----------------|---------------|----------------|
    |-3-0-1---0------|---------------|----------------|
    |-------2---0-2--|-(2)-----------|----------------|
    |----------------|---------------|----------------|
    |----------------|---------------|----------------|
    
    
                    G                             G           G
    |-------------|----------------|------------|-----------------|
    |-------------|----------------|------------|-----------------|
    |-(2)---------|-0-0-2-4-0-4-2--|-(2)--------|-----------------|
    |--------0----|----------------|------------|-----------------|
    |-------------|----------------|------------|-----------------|
    |-------------|----------------|------------|-------------3-3-|
    |
    |-------------|----------------|------------|-----------------|
    |-------------|----------------|------------|-----------------|
    |-------------|----------------|------------|-0-0-2-4-0-------|
    |-------------|----------------|------------|-----------------|
    |-------------|----------------|------------|-----------------|
    
    
      G                                                           G
    |----------------|---------------|----------------|-----------------|
    |----------------|---------------|----------------|-----------------|
    |----------------|---------------|----------------|-----------------|
    |---------0------|---------------|----------------|-----------------|
    |---0-2-3---3-2--|-(2)-----------|----------------|-----------------|
    |-3--------------|---------------|----------------|-----------3-3---|
    |
    |----------------|---------------|----------------|-----------------|
    |----------------|---------------|---------3------|-----------------|
    |----------------|-----------0-0-|-0-2-4-5---5-4--|-(4)-------------|
    |----------------|---------------|----------------|-----------------|
    |----------------|---------------|----------------|-----------------|
    
    
      G                                                           C
    |----------------|---------------|----------------|-----------------|
    |----------------|---------------|----------------|-----------------|
    |----------------|---------------|----------------|-----------------|
    |---------0------|---------------|----------------|-----------------|
    |---0-2-3---3-2--|-(2)-----------|----------------|-----------3-3---|
    |-3--------------|---------------|----------------|-----------------|
    |
    |----------------|---------------|----------------|-----------------|
    |----------------|---------------|---------3------|-----------------|
    |----------------|-----------0-0-|-0-2-4-5---5-4--|-(4)-------------|
    |----------------|---------------|----------------|-----------------|
    |----------------|---------------|----------------|-----------------|
    
    
      C                          C                                G
    |----------------|---------------|----------------|-----------------|
    |----------------|---------------|----------------|-----------------|
    |---------0------|---------------|----------------|-----------------|
    |---0-2-3---3-2--|-(2)-----------|----------------|-----------------|
    |-3--------------|---------------|----------------|-----------------|
    |----------------|---------------|----------------|-----------3-3---|
    |
    |----------------|---------------|-----2-3-5-3-2--|-(2)-------------|
    |----------------|-----------1-1-|-1-3------------|-----------------|
    |----------------|---------------|----------------|-----------------|
    |----------------|---------------|----------------|-----------------|
    |----------------|---------------|----------------|-----------------|
    
    
      G                                                           D
    |----------------|---------------|----------------|-----------------|
    |----------------|---------------|----------------|-----------------|
    |----------------|---------------|----------------|-----------------|
    |---------0------|---------------|----------------|-----------0-0---|
    |---0-2-3---3-2--|-(2)-----------|----------------|-----------------|
    |-3--------------|---------------|----------------|-----------------|
    |
    |----------------|---------------|----------------|-----------------|
    |----------------|---------------|---------3------|-----------------|
    |----------------|-----------0-0-|-0-2-4-5---5-4--|-(4)-------------|
    |----------------|---------------|----------------|-----------------|
    |----------------|---------------|----------------|-----------------|
    
    
      D                          D                                G
    |----------------|---------------|----------------|-----------------||
    |----------------|---------------|----------------|-----------------||
    |-------0-2------|---------------|----------------|-----------------||
    |-0-2-4-----5-4--|-(4)-----------|----------------|-----------0-0---||
    |----------------|---------------|----------------|-----------2-2---||
    |----------------|---------------|----------------|-----------3-3---||
    |
    |----------------|---------------|---2-4-5-7-5-4--|-(4)-------------||
    |----------------|-----------3-3-|-3--------------|-----------------||
    |----------------|---------------|----------------|-----------------||
    |----------------|---------------|----------------|-----------------||
    |----------------|---------------|----------------|-----------------||
    
    
     Build Up
                                            H=H
        C/G                   C/G           G
    |---------------------|---------------------|-------------------|
    |---------------------|---------------------|-------------------|
    |---------------------|---------------------|-------------------|
    |-0-2-0-----------0-0-|-0-2-0---------------|-0-----------------|
    |-2-3-2-----------2-2-|-2-3-2-----------2h3-|---2-3-0-2---0-----|
    |-3-3-3-----------3-3-|-3-3-3---------------|-----------3-------|
    |
    |---------------------|---------------------|-------------------|
    |-------0-0-0-1-0-----|-------0-0-0-1-0-----|---------------0h1-|
    |-------0-0-0-0-0-----|-------0-0-0-0-0-----|-------------------|
    |-------0-0-0-2-0-----|-------0-0-0-2-0-----|-------------------|
    |---------------------|---------------------|-------------------|
    
    
                          Q=120
                          G
    |-------------------|-------------------|------------------|
    |-------------------|-------------------|------------------|
    |-------------------|-0-------0-0-------|-0-------0-0------|
    |-------------------|-----0-------0-----|-----0-------0----|
    |-------------------|-------------------|------------------|
    |-------------------|-------------------|------------------|
    |
    |-------------------|-------------------|------------------|
    |-3-0-1---0-----0h1-|-3-0-1---0-----0h1-|-3-0-1---0--------|
    |-------2---0-2-----|-------2---0-2-----|-------2---0-2----|
    |-------------------|-------------------|---------------0--|
    |-------------------|-------------------|------------------|
    
    
                                        H=H
    |---------------------|--------------------||
    |---------------------|--------------------||
    |-0-----2---4-0---2---|-0-----2---4-0------||
    |-------------------0-|----------------3---||
    |---------------------|----------------0-2-||
    |---------------------|--------------------||
    |
    |---------------------|--------------------||
    |-----0---------0-----|-----0--------------||
    |-0-----2h3h4-0---2---|-0-----2h3h4-0------||
    |-------------------0-|--------------------||
    |---0-----------------|---0----------------||
    
    
     Main Duel
      Q=137
      $
      C                                 G
    |---------------------------------|---------------------------------|
    |---------------------------------|---------------------------------|
    |-------------0-------2---0-------|-----0-------3-------2h3p2p0-----|
    |-----2-----------------------2p0-|---------2-------0---------------|
    |-3---------------3---------------|-----------------------------0---|
    |---------3-----------------------|-3-------------------------------|
    |
    |---------------------------------|---------------------------------|
    |---5-----5-----5---5-----5-----5-|---0-----0-----0---0-----0-----0-|
    |-5-----5-----5---5-----5-----5---|-0-----0-----0---0-----0-----0---|
    |---------------------------------|---------------------------------|
    |-----5-----5---------5-----5-----|-----0-----0---------0-----0-----|
    
    
      D                                 G
    |---------------------------------|---------------------------------|
    |-----2S3-----3-------2S3---------|-----0-------0-------0-----------|
    |-----------------------------3S2-|-----0---2S3-----2S3---------0---|
    |-0---------------0---------------|-------------------------0h2-----|
    |---------0---------------0-------|---------------------------------|
    |---------------------------------|-3-------------------------------|
    |
    |---------------------------------|---------------------------------|
    |---7-----7-----7---7-----7-----7-|---0-----0-----0---0-----0-----0-|
    |-7-----7-----7---7-----7-----7---|-0-----0-----0---0-----0-----0---|
    |---------------------------------|---------------------------------|
    |-----7-----7---------7-----7-----|-----0-----0---------0-----0-----|
    
    
      C                                 G
    |---------------------------------|---------------------------------|
    |---------------------------------|---------------------------------|
    |-------------0-------2---0-------|-----0-------3-------2h3p2p0-----|
    |-----2-----------------------2p0-|---------2-------0---------------|
    |-3---------------3---------------|-----------------------------0---|
    |---------3-----------------------|-3-------------------------------|
    |
    |---------------------------------|---------------------------------|
    |---5-----5-----5---5-----5-----5-|---0-----0-----0---0-----0-----0-|
    |-5-----5-----5---5-----5-----5---|-0-----0-----0---0-----0-----0---|
    |---------------------------------|---------------------------------|
    |-----5-----5---------5-----5-----|-----0-----0---------0-----0-----|
    
    
                               To Coda
      D                                 G
    |-----------------3---------------|---------------------3------||
    |-----2S3-----3-------3-----------|---------------------0------||
    |-----------------------------0---|-----0-------0-------0------||
    |-0-----------------------0h2-----|---------0h2----------------||
    |---------0-----------------------|----------------------------||
    |---------------------------------|-3---------------3------3-3-||
    |
    |---------------------------------|----------------------------||
    |---7-----7-----7---7-----7-----7-|---0-----0-----0---0--------||
    |-7-----7-----7---7-----7-----7---|-0-----0-----0---0----------||
    |---------------------------------|----------------------------||
    |-----7-----7---------7-----7-----|-----0-----0---------0------||
    
    
     Middle
      G
    |---------------------------------|---------------------------------|
    |---------------------------------|-----------------3---------------|
    |-----------------------------0-0-|-0---2---4---5-------5---4-------|
    |-----------------0---------------|---------------------------------|
    |-----0---2---3-------3---2-------|---------------------------------|
    |-3-------------------------------|-----------------------------3-3-|
    |
    |---------------------------------|---------------------------------|
    |---0-----0-----0---0-----0-----0-|---0-----0-----0---0-----0-----0-|
    |-0-----0-----0---0-----0-----0---|-0-----0-----0---0-----0-----0---|
    |---------------------------------|---------------------------------|
    |-----0-----0---------0-----0-----|-----0-----0---------0-----0-----|
    
    
    |---------------------------------|------------------------------------|
    |---------------------------------|-----------------3------------------|
    |-----------------------------0-0-|-0---2---4---5-------5---4----------|
    |-----------------0---------------|------------------------------------|
    |-----0---2---3-------3---2-------|-----------------------------3-3----|
    |-3-------------------------------|------------------------------------|
    |
    |---------------------------------|------------------------------------|
    |---0-----0-----0---0-----0-----0-|---0-----0-----0---0-----0-----0----|
    |-0-----0-----0---0-----0-----0---|-0-----0-----0---0-----0-----0------|
    |---------------------------------|------------------------------------|
    |-----0-----0---------0-----0-----|-----0-----0---------0-----0--------|
    
    
      C
    |---------------------------------|---------0---1---3---1---0-------|
    |-----------------------------1-1-|-1---3---------------------------|
    |-----------------0---------------|---------------------------------|
    |-----0---2---3-------3---2-------|---------------------------------|
    |-3-------------------------------|---------------------------------|
    |---------------------------------|-----------------------------3-3-|
    |
    |---------------------------------|---------------------------------|
    |---5-----5-----5---5-----5-----5-|---5-----5-----5---5-----5-----5-|
    |-5-----5-----5---5-----5-----5---|-5-----5-----5---5-----5-----5---|
    |---------------------------------|---------------------------------|
    |-----5-----5---------5-----5-----|-----5-----5---------5-----5-----|
    
    
      G
    |---------------------------------|------------------------------------|
    |---------------------------------|-----------------3------------------|
    |-----------------------------0-0-|-0---2---4---5-------5---4----------|
    |-----------------0---------------|-----------------------------0-0----|
    |-----0---2---3-------3---2-------|------------------------------------|
    |-3-------------------------------|------------------------------------|
    |
    |---------------------------------|------------------------------------|
    |---0-----0-----0---0-----0-----0-|---0-----0-----0---0-----0-----0----|
    |-0-----0-----0---0-----0-----0---|-0-----0-----0---0-----0-----0------|
    |---------------------------------|------------------------------------|
    |-----0-----0---------0-----0-----|-----0-----0---------0-----0--------|
    
    
      D                                                             G
    |---------------------------------|-----0---2---3---5---3---2-------||
    |-----------------------------3-3-|-3-------------------------------||
    |-------------0---2---0-----------|---------------------------------||
    |-0---2---4---------------4-------|-----------------------------0-0-||
    |---------------------------------|-----------------------------2-2-||
    |---------------------------------|-----------------------------3-3-||
    |
    |---------------------------------|---------------------------------||
    |---7-----7-----7---7-----7-----7-|---7-----7-----7---7-----7-----7-||
    |-7-----7-----7---7-----7-----7---|-7-----7-----7---7-----7-----7---||
    |---------------------------------|---------------------------------||
    |-----7-----7---------7-----7-----|-----7-----7---------7-----7-----||
    
    
     Bridge
        C/G                   C/G                 G
    |---------------------|---------------------|-------------------|
    |---------------------|---------------------|-------------------|
    |---------------------|---------------------|-------------------|
    |-0-2-0-----------0-0-|-0-2-0---------------|-0-----------------|
    |-2-3-2-----------2-2-|-2-3-2-----------2h3-|---2-3-0-2---0-----|
    |-3-3-3-----------3-3-|-3-3-3---------------|-----------3-------|
    |
    |---------------------|---------------------|-------------------|
    |-------0-0-0-1-0-----|-------0-0-0-1-0-----|---------------0h1-|
    |-------0-0-0-0-0-----|-------0-0-0-0-0-----|-------------------|
    |-------0-0-0-2-0-----|-------0-0-0-2-0-----|-------------------|
    |---------------------|---------------------|-------------------|
    
    
      G
    |-------------------|-------------------|------------------|
    |-------------------|-------------------|------------------|
    |-------------------|-0-------0-0-------|-0-------0-0------|
    |-------------------|-----0-------0-----|-----0-------0----|
    |-------------------|-------------------|------------------|
    |-------------------|-------------------|------------------|
    |
    |-------------------|-------------------|------------------|
    |-3-0-1---0-----0h1-|-3-0-1---0-----0h1-|-3-0-1---0--------|
    |-------2---0-2-----|-------2---0-2-----|-------2---0-2----|
    |-------------------|-------------------|---------------0--|
    |-------------------|-------------------|------------------|
    
    
                                 D.S. al Coda
    |---------------------|--------------------||
    |---------------------|--------------------||
    |-0-----2---4-0---2---|-0-----2---4-0------||
    |-------------------0-|----------------3---||
    |---------------------|----------------0-2-||
    |---------------------|--------------------||
    |
    |---------------------|--------------------||
    |-----0---------0-----|-----0--------------||
    |-0-----2h3h4-0---2---|-0-----2h3h4-0------||
    |-------------------0-|--------------------||
    |---0-----------------|---0----------------||
    
    
     Outro
      &
      G                          N.C.
    |---------------------3----|---------------------------|
    |---------------------0----|---------------------------|
    |-----0-------0-------0----|---------------------------|
    |---------0h2--------------|---------------------------|
    |--------------------------|---------------------------|
    |-3---------------3--------|---------------------------|
    |
    |--------------------------|---------------------------|
    |---0-----0-----0---0-0--0-|-0-0-0-0-0-----------------|
    |-0-----0-----0---0---0--0-|-0-0-0-0-0-3S4-(4)-3S4-----|
    |--------------------------|-----------------------5-5-|
    |-----0-----0---------0--0-|-0-0-0-0-0-----------------|
    
    
      Gtr II
    |---------------------------------------------|-------------------------------|
    |-------0-------0-------0-------0-------0-----|---0-------0-------0-------0---|
    |-3S4-----3S4-----3S4-----3S4-----3S4-----3S4-|-----3S4-----3S4-------0-2-----|
    |---------------------------------------------|---------------------2---------|
    |-----0-------0-------0-------0-------0-------|-0-------0-------0-------------|
    
    
      Gtr II
    |-----------5-----------5---|-----5---------7-----*|
    |-5-------5---5-------5-----|-2h5---------7---0---*|
    |-------------------------6-|---------5-7-----0---*|
    |---------------------------|---------------------*|
    |-3b4-0-0-----3b4-0-0-------|-------4---------0---*|
     

    Тональность:

    Нет текста!



    Назад
    Рекомендуем посмотреть другие песни исполнителя «Misc»:

    • Комментарии Facebook ()
    • Комментарии ВКонтакте



    Добавить в Избранное Браузера
    Сохранить здесь Очистить


    x

    0


    +
    -

    +
    -

    -

    Авторизация





    Зарегистрироваться

    M

    Дата и время

    • 15:38:56
       

    Социальные ссылки


    Наши приложения

    • Muzbank App Play Market
    • Muzbank Amazon App