MUZBANK



A Most Complete Bank Of Music Information

МУЗЫКАЛЬНО-ИНФОРМАЦИОННЫЙ БАНК

Поиск по сайту







    MMisc • Father Land (аккорды и текст - chords & lyrics)


    225

    Print

    Видео «Father Land (Misc)»

    Видео клипы к песне подбираются автоматически сайтом youtube. Возможны некоторые несоответствия клипов песне.

    ↑ Спрятать рекламу ↑



    Download


     
    
    
    Fatherland- German National Anthem
    
    
    e|--0-0-1-3-3-1-0---------0-0----|                  This Song is easy as 
    b|----------------3-1-1-3-----3-3|                  1,2,3...
    g|-------------------------------|                  all there is to it is
    d|-------------------------------|                  just to get the timing 
    a|-------------------------------|                  right....
    e|-------------------------------|
    
    e|--0-0-1-3-3-1-0---------0------|
    b|----------------3-1-1-3---3-1-1|
    g|-------------------------------|
    d|-------------------------------|
    a|-------------------------------|
    e|-------------------------------|
    
    e|------0-----0-1-0-----0-1-0--------|                 Submitted by:
    b|--3-3---1-3-------1-3-------3-1-3--|                  Nicklas Keng
    g|----------------------------------0|
    d|-----------------------------------|
    a|-----------------------------------|         For any corrections 
    e|-----------------------------------|         E-mail: 
                                                     nicklas_keng@hotmail.com
    e|--0-0-1-3-3-1-0---------0------|                    
    b|----------------3-1-1-3---3-1-1|
    g|-------------------------------|
    d|-------------------------------|
    a|-------------------------------|
    e|-------------------------------|
    
    enjoy!!!!
     

    Тональность:

    Нет текста!



    Назад
    Рекомендуем посмотреть другие песни исполнителя «Misc»:

    • Комментарии Facebook ()
    • Комментарии ВКонтакте



    Добавить в Избранное Браузера
    Сохранить здесь Очистить


    x

    0


    +
    -

    +
    -

    -

    Авторизация





    Зарегистрироваться

    M

    Дата и время

    • 03:26:50
       

    Социальные ссылки


    Наши приложения

    • Muzbank App Play Market
    • Muzbank Amazon App