MUZBANK



A Most Complete Bank Of Music Information

МУЗЫКАЛЬНО-ИНФОРМАЦИОННЫЙ БАНК

Поиск по сайту







    MMisc Soundtrack • Dueling Banjos (аккорды и текст - chords & lyrics)


    370

    Print

    Видео «Dueling Banjos (Misc Soundtrack)»

    Видео клипы к песне подбираются автоматически сайтом youtube. Возможны некоторые несоответствия клипов песне.

    ↑ Спрятать рекламу ↑



    Download


     
    
    
    Dueling Banjos
    
    From the film deliverance...Staring Burt Rynolds
    Written (2 guitair tabs) by Some fool witha lotta time on his hands. Its basicly the song. ne complaints? well just take into consideration this probably took me 5 hours or so 2 do.... b Grateful there are people like me.
    Email me @ simy004@hotmail.com if u want.
    Well here goes....
    btw the banjo bit is played on a guitair
    
    start of with g g g c g in normal position (guitair)
    after guitair part (above) play: (4 banjo)
    
    E -7-7-7-12-7--
    D -9-9-9-13-9--
    G -7-7-7-12-7--
    B -------------
    
         Guitair                      Banjo             X2 
    E -------------------------7-8-10-7-8----7------------------
    D ------------------------------------10---8-10-------------
    G -4-5-7-4-5---4--------------------------------------------
    B -----------7---5-7----------------------------------------
    A ----------------------------------------------------------
    E ----------------------------------------------------------
    
          Guitair                        Banjo
    E ---------------------------------------6---6--------------
    D ---------------------------------7-7-9---7---9------------
    G -------------------------------6--------------------------
    B ---------4---4--------------------------------------------
    A ---5-5-7---5---7------------------------------------------
    E -5--------------------------------------------------------
    
            Guitair                         Banjo           X2
    E ---------------------------------------6-7-9-7-6----------
    D -------------------------------7-7-7-9--------------------
    G ----------------------------------------------------------
    B ----------------------------------------------------------
    A ---------2-3-5-3-2----------------------------------------
    E -3-3-3-5--------------------------------------------------
    
            Guitair                         Banjo
    E --------------------------------7-7-7-9-11-12-14-12-11----
    D ----------------------------------------------------------
    G ----------------------------------------------------------
    B ---------2-3-5-3-2----------------------------------------
    A -3-3-3-5--------------------------------------------------
    E ----------------------------------------------------------
    
            Guitair                         Banjo
    E ---------------------------------------6-7-9-7-6----------
    D -------------------------------7-7-7-9--------------------
    G ----------------------------------------------------------
    B ----------------------------------------------------------
    A ---------2-3-5-3-2----------------------------------------
    E -3-3-3-5--------------------------------------------------
    
    
            Guitair                         Banjo
    E ----------------------------10-10-10-12-14-15-17-15-14----
    D ----------------------------------------------------------
    G -----------0-2-0------------------------------------------
    B -0-0-0-2-4-------4----------------------------------------
    A ----------------------------------------------------------
    E ----------------------------------------------------------
    
    Follow it by: g,g,g,c,g (As like the beginning)
    And then 4 the banjo part: (The same as the beginnig again)
    
    E -7-7-7-12-7--
    D -9-9-9-13-9--
    G -7-7-7-12-7--
    B -------------
    
    If u want the chords then play:
       G  G  G         E  E  E
    E -3--3--3---------0--0--0----------------------------------
    D -0--0--0---------0--0--0----------------------------------
    G -0--0--0---------1--1--1----------------------------------
    B -0--0--0---------2--2--2----------------------------------
    A -2--2--2---------2--2--2----------------------------------
    E -3--3--3--3-2-1--0--0--0----------------------------------
    
    Well there u go just mess about with the cords it doesnt really matter.
    
    Hope u enjoy it
    Email me @ simy004@hotmail.com
    Im on messenger also.
    Thanx... cya
    Written by simy004
     

    Тональность:

    Нет текста!



    Назад
    Рекомендуем посмотреть другие песни исполнителя «Misc Soundtrack»:

    • Комментарии Facebook ()
    • Комментарии ВКонтакте



    Добавить в Избранное Браузера
    Сохранить здесь Очистить


    x

    0


    +
    -

    +
    -

    -

    Авторизация





    Зарегистрироваться

    M

    Дата и время

    • 18:44:27
       

    Социальные ссылки


    Наши приложения

    • Muzbank App Play Market
    • Muzbank Amazon App