MUZBANK



A Most Complete Bank Of Music Information

МУЗЫКАЛЬНО-ИНФОРМАЦИОННЫЙ БАНК

Поиск по сайту







    MMisc Soundtrack • Endless Summer Theme (аккорды и текст - chords & lyrics)


    199

    Print

    Видео «Endless Summer Theme (Misc Soundtrack)»

    Видео клипы к песне подбираются автоматически сайтом youtube. Возможны некоторые несоответствия клипов песне.

    ↑ Спрятать рекламу ↑



    Download


     
    
    
    This is the theme from the classic surf movie. Its pretty simple. Enjoy!
    
    h= Hammer on
    p= pull off
    s= slide
    ^= ska upstrokes
    ~= sustain
    
    
    
    GUITAR I:
    
               FIGURE A
                 ^   ^              ^  ^
    e| -------9--9---9-----------7--7--7----|
    B| -------9--9---9-----------7--7--7----| 
    G| ----10----10--10--------8----8--8----|
    D| -11-------11--11------9------9--9----|
    A| -------------------------------------|
    E| -------------------------------------|
    
    
                 FIGURE B
    e| --------------------------------|
    B| -14-9-14-16-12-16-18-14-16-18-16|
    G| --------------------------------|
    D| --------------------------------|
    A| --------------------------------|
    E| --------------------------------|
    
                  FIGURE C
    e| -----------------------|------------------------|
    B| -14-9-14-12-11h12p11-9-|-14-9-14-16-------------|
    G| -----------------------|------------------------|
    D| -----------------------|------------------------|
    A| -----------------------|------------------------|
    E| -----------------------|------------------------|
    
                   FIGURE D
    
    e| --------------------------------|
    B| -12-7-12-14-10-14-16-12-14-16-14|
    G| --------------------------------|
    D| --------------------------------|
    A| --------------------------------|
    E| --------------------------------|
    
                 FIGURE E
    
    e| --------------------|-------------------|
    B| -12-7-12-10-9h10p9-7|-12-7-12-14--------|
    G| --------------------|-------------------|
    D| --------------------|-------------------|
    A| --------------------|-------------------|
    E| --------------------|-------------------|
    
                    SOLO: heavy distortion
    e| ---------------?----------------|
    B| ---------------?----------------|
    G| ---------------?----------------|
    D| ---------------?----------------|
    A| ---------------?----------------|
    E| ---------------?----------------|
    
                    OUTRO:
    e| -------------------|
    B| -5s1~s3s5----------|
    G| -------------------|
    D| -------------------|
    A| -------------------|
    E| -------------------|
    
    GUITAR II:
    
    
            FIGURE 1:
        ^  ^  ^  ^    ^  ^  ^  ^
    e| -9--9--9--9--s-7--7--7--7--------|
    B| -9--9--9--9--s-7--7--7--7--------|
    G| -10-10-10-10-s-8--8--8--8--------|
    D| -11-11-11-11-s-9--9--9--9--------|
    A| ---------------------------------|
    E| ---------------------------------|
    
             FIGURE 2:
        ^ ^ ^ ^   ^ ^ ^ ^
    e| -7-7-7-7-s-5-5-5-5---------------|
    B| -7-7-7-7-s-5-5-5-5---------------|
    G| -8-8-8-8-s-6-6-6-6---------------|
    D| -9-9-9-9-s-7-7-7-7---------------|
    A| ---------------------------------|
    E| ---------------------------------|
    
              FIGURE 3:
        ^ ^ ^ ^   ^ ^ ^ ^   ^ ^ ^ ^
    e| -7-7-7-7-s-5-5-5-5-s-7-7-7-7-----------------|
    B| -7-7-7-7-s-5-5-5-5-s-7-7-7-7-----------------|
    G| -8-8-8-8-s-6-6-6-6-s-8-8-8-8-----------------|
    D| -9-9-9-9-s-7-7-7-7-s-9-9-9-9--7-7-7-7-7-9----|
    A| ------------------------------7-7-7-7-7-9----|
    E| ------------------------------5-5-5-5-5-7----|
    
               FIGURE 4: Heavy distortion
    e| ------------------------------|
    B| ------------------------------|
    G| ------------------------------|
    D| ------------------------------|
    A| -11-x-11-x----9-x-9-x---------|
    E| -9--x--9-x----7-x-7-x---------|
    
                FIGURE 5:
    e| -9--9--9--s-7----------------|
    B| -9--9--9--s-7----------------|
    G| -10-10-10-s-8----------------|
    D| -11-11-11-s-9----------------|
    A| -----------------------------|
    E| -----------------------------|
     
                OUTRO:
        Am                      D7
    e| -0--0--0-----0-----0-----2--2--2-----2-----2---|
    B| -1--1----1-----1-----1---1--1----1-----1-----1-|
    G| -2--2------2-----2-------2--2------2-----2-----|
    D| -2--2--------------------0--0------------------|
    A| -0--0--------------------0--0------------------|
    E| -----------------------------------------------|
    
    
    
    FOR INFO, email me at roymoose@aol.com
     

    Тональность:

    Нет текста!



    Назад
    Рекомендуем посмотреть другие песни исполнителя «Misc Soundtrack»:

    • Комментарии Facebook ()
    • Комментарии ВКонтакте



    Добавить в Избранное Браузера
    Сохранить здесь Очистить


    x

    0


    +
    -

    +
    -

    -

    Авторизация





    Зарегистрироваться

    M

    Дата и время

    • 13:57:52
       

    Социальные ссылки


    Наши приложения

    • Muzbank App Play Market
    • Muzbank Amazon App