MUZBANK



A Most Complete Bank Of Music Information

МУЗЫКАЛЬНО-ИНФОРМАЦИОННЫЙ БАНК

Поиск по сайту







    MMisc Television • Nfl Theme (аккорды и текст - chords & lyrics)


    200

    Print

    Видео «Nfl Theme (Misc Television)»

    Видео клипы к песне подбираются автоматически сайтом youtube. Возможны некоторые несоответствия клипов песне.

    ↑ Спрятать рекламу ↑



    Download


     
    
    
    This is the nfl theme (its not the whole thing or is it EXACTLY right)
    
    I will get the rest of it figured out later
    
    |---------------15----------------16-----------------15-15-16-20-19|
    |13-15-16-15-13----13-15-16-15-13----13-15-16-15-13----------------|
    |------------------------------------------------------------------|
    |------------------------------------------------------------------|
    |------------------------------------------------------------------|
    |------------------------------------------------------------------|
    
    |-8-10-11-8-10-11-8-10-11-13-10---8-10-11-8-10-11-8-10-11-15-13----|
    |---------------------------------------------------------------15-|
    |------------------------------------------------------------------|
    |------------------------------------------------------------------|
    |------------------------------------------------------------------|
    |------------------------------------------------------------------|
    
    |15-16-20-19-------------------------------------------------------|
    |------------------------------------------------------------------|
    |------------------------------------------------------------------|
    |------------------------------------------------------------------|
    |------------------------------------------------------------------|
    |------------------------------------------------------------------|
    
    This Tab Was figured out by me and a friend
    if you have ne questions or comments e-mail me at moto_x2@swbell.net
    
    Proving this tabs is mine i would like to say one thing to a friend(s)
    
    HA DENNIS,COLIN,JAMES,JONATHAN,BRAD,MATT(lol inside joke)
    
    FROM MIKE!
     

    Тональность:

    Нет текста!



    Назад
    Рекомендуем посмотреть другие песни исполнителя «Misc Television»:

    • Комментарии Facebook ()
    • Комментарии ВКонтакте



    Добавить в Избранное Браузера
    Сохранить здесь Очистить


    x

    0


    +
    -

    +
    -

    -

    Авторизация





    Зарегистрироваться

    M

    Дата и время

    • 09:06:39
       

    Социальные ссылки


    Наши приложения

    • Muzbank App Play Market
    • Muzbank Amazon App