MUZBANK



A Most Complete Bank Of Music Information

МУЗЫКАЛЬНО-ИНФОРМАЦИОННЫЙ БАНК

Поиск по сайту







    MMisc Television • Spiderman Theme (аккорды и текст - chords & lyrics)


    182

    Print

    Видео «Spiderman Theme (Misc Television)»

    Видео клипы к песне подбираются автоматически сайтом youtube. Возможны некоторые несоответствия клипов песне.

    ↑ Спрятать рекламу ↑



    Download


     
    
    
    I cant believe no-one has tabbed this kick ass song! So here it is, best i can get it!
    
    STANDARD TUNING
    
    [Pre Intro thing]
    -12--------------------|
    -14--------------------|
    -----------------------|
    -----------------------|
    -----------------------|
    -----------------------| (Hold this and slide down to the bridge)
    
    
    [Intro]
    -----3-2-1-------------|
    ---1-------------------|
    -2---------------------|
    -----------------------|
    -----------------------|
    -----------------------| (Repeat as song progresses)
    
    
    [Small tapping]
    -22--20--22--20--22--20-|-17-|
    ------------------------|----|
    ------------------------|----|
    ------------------------|----|
    ------------------------|----|
    ------------------------|----| (Play this fast, slide on the 17}
    
    [Pre-Solo]
    -------5----|-----------|
    ------------|-----------|
    -7p5--------|-7p5-------|
    -----7------|-----7-7---|
    ------------|-----------|
    ------------|-----------|  {x2} (Again, played fast)
    
    
    -----------------------|
    -----------------------|
    -7p5--7p5--7p5--7p5----|
    ---------------------7-|
    -----------------------|
    -----------------------| (Yep, fast too)
    
    [Pre Solo 2]
    ----------17-|--------------|
    -15p13-------|-15p13--------|
    -------14----|-------14--14-|
    -------------|--------------|
    -------------|--------------|
    -------------|--------------| {x2} (You guessed it, fast aswell!)
    
    
    [Solo]
    -22--22--22--20--------|
    -----------------------|
    -----------------------|
    -----------------------|
    -----------------------|
    -----------------------| (Let ring and prepare for next part)
    
    
    -17--15------------------------------------|
    --------17--16--15----15----15-------------|
    -------------------17----17---17--14----14-|
    -------------------------------------17----|
    -------------------------------------------|
    -------------------------------------------|
    (Play this Real fast!, and slide down on the last 14)
    
    Thats about it! Hope you all like it!
    My email addy is: Sexy_Tj_17@hotmail.com  - So get in touch for any questions!
     

    Тональность:

    Нет текста!



    Назад
    Рекомендуем посмотреть другие песни исполнителя «Misc Television»:

    • Комментарии Facebook ()
    • Комментарии ВКонтакте



    Добавить в Избранное Браузера
    Сохранить здесь Очистить


    x

    0


    +
    -

    +
    -

    -

    Авторизация





    Зарегистрироваться

    M

    Дата и время

    • 12:59:59
       

    Социальные ссылки


    Наши приложения

    • Muzbank App Play Market
    • Muzbank Amazon App