MUZBANK



A Most Complete Bank Of Music Information

МУЗЫКАЛЬНО-ИНФОРМАЦИОННЫЙ БАНК

Поиск по сайту







    MMisc Unsigned Bands • Lesser Known Saint - The Tor (аккорды и текст - chords & lyrics)


    154

    Print

    Видео «Lesser Known Saint - The Tor (Misc Unsigned Bands)»

    Видео клипы к песне подбираются автоматически сайтом youtube. Возможны некоторые несоответствия клипов песне.

    ↑ Спрятать рекламу ↑



    Download


     
    
    
    ----------------------------------------------------------------------------
    			     THE TORN PRINCE - LESSER KNOWN SAINT
    ----------------------------------------------------------------------------
    Tabbed by:LKSMike
    This is the newest song from LKS.  Its a great metal song with some sweet licks
    check us out at : www.lksband.4t.com
    
    Tuning: Drop Db
    
    Intro-quiet and some distortion.
    Eb|---------------||
    Bb|---------------||
    Gb|---------------||
    Db|-7-7-7-7-8-8---||
    Ab|-7-7h8-8-8-8---||
    Db|-0-0-0-0-0-0---||Play 8 times
    
    	Enter with pick slide-Verses played with heavy distortion
    Eb|---------------------------------5xxxx5---12xxxx12----------------------|
    Bb|---------------------------------5xxxx5---12xxxx12----------------------|
    Gb|---------------------------------7xxxx7---14xxxx14----------------------|
    Db|-9-9-9---9---9---11--11-12--11---7xxxx7---14xxxx14---57--57--7--------|
    Ab|-9-9-10--10--10--9---9--9---9----5xxxx5---12xxxx12---57--57--7--------|
    Db|-9-9-9---9---9---9---9--9---9----5xxxx5---12xxxx12---57--57--7--------|
    	Repeat 2 times
    
    	Pre-Chorus
    Eb|------------------------------------------------------------------------|
    Bb|------------------------------------------------------------------------|
    Gb|------------------------------------------------------------------------|
    Db|-9-9-9-9/7-7--5-5-5-57-7--9-9-9-9/7--------+12-------------------------|
    Ab|-9-9-9-9/7-7--5-5-5-57-7--9-9-9-9/7-----+12----------------------------|
    Db|-9-9-9-9/7-7--5-5-5-57-7--9-9-9-9/7--+12-------------------------------|
    
    	Chorus
    Eb|------------------------------------------------------------------------|
    Bb|------------------------------------------------------------------------|
    Gb|------------------------------------------------------------------------|
    Db|-3-3-3-3--5-5-5-5--6-0-0--6-0--1-0-1-0----------------------------------|
    Ab|-3-3-3-3--5-5-5-5--6-0-0--6-0--1-0-1-0----------------------------------|
    Db|-3-3-3-3--5-5-5-5--6-0-0--6-0--1-0-1-0----------------------------------|
    
    Eb|------------------------------------------------------------------------|
    Bb|------------------------------------------------------------------------|
    Gb|--------------------------710-1012-12---------------------------------|
    Db|-3-3-3-3--5-5-5-5--6-0-0------------------------------------------------|
    Ab|-3-3-3-3--5-5-5-5--6-0-0--58--810-10---------------------------------|
    Db|-3-3-3-3--5-5-5-5--6-0-0------------------------------------------------|
    	Repeat 2 times
    	
    	Interlude
    Eb|------------------------------------------------------------------------|
    Bb|------------------------------------------------------------------------|
    Gb|------------------------------------------------------------------------|
    Db|-2-2-2-2-+3-+3-+3-+3----------------------------------------------------|
    Ab|-2-2-2-2-+3-+3-+3-+3----------------------------------------------------|
    Db|-2-2-2-2-+3-+3-+3-+3----------------------------------------------------|
    	Repeat 4 times
    
    	Bridge---ALL HARMONICS!
    Eb|------------------------------------------------------------------------|
    Bb|------------------------------------------------------------------------|
    Gb|------------------------------------------------------------------------|
    Db|---9--9---7---5--5--7------9--9----7------12----------------------------|
    Ab|--9-9----7---5-5------7---9-9-----7-----12------------------------------|
    Db|-9---9--7---5---5--7-7---9---9---7----12--------------------------------|
    
    Order of song :
    
    Intro 
    Verse
    Pre Ch
    Chorus
    Inter
    Verse
    Pre Ch
    Chorus
    Inter
    Bridge
    Pre Ch
    Chorus
    Inter
    
    | /  slide up
    |   slide down
    | h  hammer-on
    | p  pull-off
    | ~  vibrato
    | +  harmonic
    | x  Mute note
    ===============================================================================
     

    Тональность:

    Нет текста!



    Назад
    Рекомендуем посмотреть другие песни исполнителя «Misc Unsigned Bands»:

    • Комментарии Facebook ()
    • Комментарии ВКонтакте



    Добавить в Избранное Браузера
    Сохранить здесь Очистить


    x

    0


    +
    -

    +
    -

    -

    Авторизация





    Зарегистрироваться

    M

    Дата и время

    • 13:00:19
       

    Социальные ссылки


    Наши приложения

    • Muzbank App Play Market
    • Muzbank Amazon App