MUZBANK



A Most Complete Bank Of Music Information

МУЗЫКАЛЬНО-ИНФОРМАЦИОННЫЙ БАНК

Поиск по сайту







    MMisc Unsigned Bands • Overtone - Hurt And Lost (аккорды и текст - chords & lyrics)


    171

    Print

    Видео «Overtone - Hurt And Lost (Misc Unsigned Bands)»

    Видео клипы к песне подбираются автоматически сайтом youtube. Возможны некоторые несоответствия клипов песне.

    ↑ Спрятать рекламу ↑



    Download


     
    
    
    Overtone - hurt and lost
    this is how the verses are formed:
    
    e-------------------------------------
    b-------------------------------------
    g-------------------------------------
    d--2-22-2-2-222-2-2--5-55-5-5-555-5-5-
    a--2-22-2-2-222-2-2--5-55-5-5-555-5-5-
    e-------------------------------------
    
    e-----------------------------------
    b-----------------------------------
    g-----------------------------------
    d-----------------------------------
    a-2-22-2-2-222-2-2--5-55-5-5-555-5-5
    e-2-22-2-2-222-2-2--5-55-5-5-555-5-5    x 3
    
    then only bass and th guitar solo
    
    bass:
    g-----------------------------------
    d-----------------------------------
    a-2-2-2-2-2-2-2-2--5-5-5-5-5-5-5-5--
    e-----------------------------------
    
    g-----------------------------------
    d-----------------------------------
    a-----------------------------------
    e-2-2-2-2-2-2-2-2--5-5-5-5-5-5-5-5--
    
    ontop of that the solo:
    e-3-3-3-5-0----3-3-3-5-0----3-3-3-5-0
    b------------------------------------
    g------------------------------------
    d------------------------------------
    a------------------------------------
    e------------------------------------
    
    e----3--5--7------0------------------
    b------------------------------------
    g-------------7----------------------
    d------------------------------------
    a------------------------------------
    e------------------------------------
    
    and then the verses again,
    the last two verses are with distortion
    
    for the bass line, do what it does in the solo bit and with some enties in the chorus of:
    e------------------------------------
    b-2--5-------------------------------
    g-------5--2-2-----------------------
    d------------------------------------  x4
    
    
    the guitar chorus is 
    e--22-5---22---55---------------------------
    b--22-5---22---55---------------------------
    g--22-5---22---55---------------------------
    d--22-5---22---55---------------------------
    a--22-5---22---55---------------------------
    e--22-5---22---55---------------------------  x5
    
    
    
    ps we are only a starting band and try and tell atleast one friend about us.
    thankyou,
    winand slingenbergh
    winsling@hotmail.com
     

    Тональность:

    Нет текста!



    Назад
    Рекомендуем посмотреть другие песни исполнителя «Misc Unsigned Bands»:

    • Комментарии Facebook ()
    • Комментарии ВКонтакте



    Добавить в Избранное Браузера
    Сохранить здесь Очистить


    x

    0


    +
    -

    +
    -

    -

    Авторизация





    Зарегистрироваться

    M

    Дата и время

    • 22:57:35
       

    Социальные ссылки


    Наши приложения

    • Muzbank App Play Market
    • Muzbank Amazon App