MUZBANK



A Most Complete Bank Of Music Information

МУЗЫКАЛЬНО-ИНФОРМАЦИОННЫЙ БАНК

Поиск по сайту







    MMisc Unsigned Bands • Papur Bag Soldiers - The New (аккорды и текст - chords & lyrics)


    187

    Print

    Видео «Papur Bag Soldiers - The New (Misc Unsigned Bands)»

    Видео клипы к песне подбираются автоматически сайтом youtube. Возможны некоторые несоответствия клипов песне.

    ↑ Спрятать рекламу ↑



    Download


     
    
    
    we are a real band from Crusces New mexico.
    We just started so we hope you like the song.
    
    
    verse
                        3 times
    e----------------    
    B----------------
    G----------------
    D----------------
    A-2---2h3--------
    E---0-----3------
                        3 times  
    e----------------     
    B----------------
    G----------------
    D-2---2h3--------
    A---0-----3------
    E----------------
    
    Verse 4 times
    
    
    Pre chorus                                       1 time
    e---------------------------------------------
    B---------------------------------------------
    G---------------------------------------------
    D-5---5-7-----------3-----3-5--2-----2-3------
    A----------5---5-7------0----------0----------
    E---0--------0--------0----------0------------
    
    Chorus
                                                                           2 times
    e----------------------------------------------------------------------------
    B----------------------------------------------------------------------------
    G----------------------------------------------------------------------------
    D----------------------------------------------------------------------------
    A-333333333333333333-222222222222222222-777777777777777777-333333333333333333
    E-333333333333333333-222222222222222222-777777777777777777-333333333333333333
    
    verse 4 times
    
    Pre chorus
    
    chorus
    
    Solo
                                                                   3 times
    e-2222222222-5555555555-3333333333-7777-99---------------------
    B--------------------------------------------------------------
    G--------------------------------------------------------------
    D--------------------------------------------------------------
    A--------------------------------------------------------------
    E--------------------------------------------------------------
    
    chorus
    
    
    
    this is one of my songs hope it sounds good. oh, turn your amp to full distortion.
     

    Тональность:

    Нет текста!



    Назад
    Рекомендуем посмотреть другие песни исполнителя «Misc Unsigned Bands»:

    • Комментарии Facebook ()
    • Комментарии ВКонтакте



    Добавить в Избранное Браузера
    Сохранить здесь Очистить


    x

    0


    +
    -

    +
    -

    -

    Авторизация





    Зарегистрироваться

    M

    Дата и время

    • 23:11:02
       

    Социальные ссылки


    Наши приложения

    • Muzbank App Play Market
    • Muzbank Amazon App