MUZBANK



A Most Complete Bank Of Music Information

МУЗЫКАЛЬНО-ИНФОРМАЦИОННЫЙ БАНК

Поиск по сайту







    MMisc Unsigned Bands • Rabble - Salvation (аккорды и текст - chords & lyrics)


    178

    Print

    Видео «Rabble - Salvation (Misc Unsigned Bands)»

    Видео клипы к песне подбираются автоматически сайтом youtube. Возможны некоторые несоответствия клипов песне.

    ↑ Спрятать рекламу ↑



    Download


     
    
    
    www.therabble.net
    title: salvation
    band: the rabble
    album: take a walk
    
    Intro :
    
    |---------------------------|---| ---------------|
    |---------------------------|---| ---------------|
    |-88---88-12-10-13-13-12-10-|---| -88---88-12-15-|
    |-88---88-------------------|x2-| -88---88-12-15-|
    |-66---66-------------------|---| -66---66-10-13-|
    |---864 --------------------|---| ----864--------|
    
    
    |---------------------------|---| 
    |---------------------------|---|
    |-88---88-12-10-13-13-12-10-|---|
    |-88---88-------------------|x2-|
    |-66---88-------------------|---|
    |---864---------------------|---|
    
    verse 1 :
    
    |-----------------|---|---| 
    |-----------------|---|---|
    |-8888888---------|x10|---|
    |-8888888-6666666-|---|-8-|
    |-6666666-6666666-|---|-8-|
    |---------4444444-|---|-6-|
    
    chorus :
    
    |---------------------------|---|----|
    |---------------------------|---|----|
    |-88---88-12-10-13-13-12-10-|---|-10-|
    |-88---88-------------------|x2-|-10-|
    |-66---66-------------------|---|-8--|
    |---864---------------------|---|----|
    
    verse 2 :
    
    |----------------------------------------|
    |----------------------------------------|
    |-----8-7-8-----8-10-12----------------8-|
    |-6-8-8-7-8-6-8-8-10-12-6-8-10-5-6-8-8-8-|
    |-6-8-6-5-6-6-8-6-8--10-6-8-10-5-6-8-8-6-|
    |-4-6-------4-6---------4-6--8-3-4-6-6---|
    
    chorus :
    
    |---------------------------|---|----|
    |---------------------------|---|----|
    |-88---88-12-10-13-13-12-10-|---|-10-|
    |-88---88-------------------|x2-|-10-|
    |-66---88-------------------|---|-8--|
    |---864---------------------|---|----|
    
    
    verse 3:
    
    |----------------------------------------|
    |----------------------------------------|
    |-----8-7-8-----8-10-12----------------8-|
    |-6-8-8-7-8-6-8-8-10-12-6-8-10-5-6-8-8-8-|
    |-6-8-6-5-6-6-8-6-8--10-6-8-10-5-6-8-8-6-|
    |-4-6-------4-6---------4-6--8-3-4-6-6---|
    
    chorus :
    
    |---------------------------|---|----|
    |---------------------------|---|----|
    |-88---88-12-10-13-13-12-10-|---|-10-|
    |-88---88-------------------|x2-|-10-|
    |-66---88-------------------|---|-8--|
    |---864---------------------|---|----|
    
    bridge:
    
    |------------------|---|----------------------| 
    |------------------|---|----------------------|
    |-888888-7-8888888-|x2-|-13-13-13-13-13-13-13-|
    |-888888-7-8888888-|---|-13-13-13-13-13-13-13-|
    |-666666-5-6666666-|---|-11-11-11-11-11-11-11-|
    |------------------|---|----------------------|
    
    |-----------------------------|---|---| 
    |-----------------------------|---|---|
    |-888888-13-13-13-13-13-13-13-|x2-|---|
    |-888888-13-13-13-13-13-13-13-|---|-8-|
    |-666666-13-13-13-13-13-13-13-|---|-8-|
    |-----------------------------|---|-6-|
    
    chorus :
    
    |---------------------------|---|----|
    |---------------------------|---|----|
    |-88---88-12-10-13-13-12-10-|---|-10-|
    |-88---88-------------------|x2-|-10-|
    |-66---88-------------------|---|-8--|
    |---864---------------------|---|----|
    
    bride 2 :
    
    |--------------------------|
    |--------------------------|
    |------------8xxx-88-10-12-|
    |-10xxx-6xxx-8xxx-88-10-12-|
    |-10xxx-6xxx-6xxx-66--8-10-|
    |--8xxx-4xxx---------------|
    
    chorus :
    
    |---------------------------|---|----|
    |---------------------------|---|----|
    |-88---88-12-10-13-13-12-10-|---|-10-|
    |-88---88-------------------|x2-|-10-|
    |-66---88-------------------|---|-8--|
    |---864---------------------|---|----|
    
    
    outro:
    
    |------------------|
    |------------------|
    |---10-10-8-7-8888-|
    |-8-10-10-8-7-8888-|
    |-8--8--8-6-5-6666-|
    |-6----------------|
     

    Тональность:

    Нет текста!



    Назад
    Рекомендуем посмотреть другие песни исполнителя «Misc Unsigned Bands»:

    • Комментарии Facebook ()
    • Комментарии ВКонтакте



    Добавить в Избранное Браузера
    Сохранить здесь Очистить


    x

    0


    +
    -

    +
    -

    -

    Авторизация





    Зарегистрироваться

    M

    Дата и время

    • 04:14:45
       

    Социальные ссылки


    Наши приложения

    • Muzbank App Play Market
    • Muzbank Amazon App