MUZBANK



A Most Complete Bank Of Music Information

МУЗЫКАЛЬНО-ИНФОРМАЦИОННЫЙ БАНК

Поиск по сайту







    MMisc Unsigned Bands • Reap - Sotbdii (аккорды и текст - chords & lyrics)


    196

    Print

    Видео «Reap - Sotbdii (Misc Unsigned Bands)»

    Видео клипы к песне подбираются автоматически сайтом youtube. Возможны некоторые несоответствия клипов песне.

    ↑ Спрятать рекламу ↑



    Download


     
    
    
    Dropped D-Tuning (b-f#-b-e-g#-c#)
    
    (Intro)
    e---------------------------------------
    b---------------------------------------
    g---------------------------------------  repeat that 4 times
    d--------------------------3-5-0-6-0-5-3
    a---------------------------------------
    d-0-0-0-0-0-0-3p0-0-0-0-0-0-------------
      . . . . . .     . . . . . 
    then
    
    e------------------------------------------------I-------------
    b-------------intro 2a---------------------------I-------riff 2
    g------------------------------------------------I-------------
    d------------6-5-------------6-5-------------6-5-I--0-3-0-6-6-5
    a------------------------------------------------I--0-3-0-6-6-5
    d-0-0-0-0-0-0-----0-0-0-0-0-0-----0-0-0-0-0-0----I--0-3-0-6-6-5
      . . . . . .     . . . . . .     . . . . . .
    repeat intro 2a and then
    e------------
    b------------
    g------------
    d-0-6-0-5-0-3
    a-0-6-0-5-0-3
    d-0-6-0-5-0-3
    
    reapeat intro 1
    
    then intro 3
    e-----------------------------------------------------------
    b-----------------------------------------------------------
    g-----------------------------------------------------------
    d-0-0-0--0-0-0--0-0-0--0-0-1-3-0-0-0--0-0-0--7-6-0-6-5-0-1-3
    a-0-0-0--0-0-0--0-0-0--0-0-1-3-0-0-0--0-0-0--7-6-0-6-5-0-1-3
    d-0-0-0--0-0-0--0-0-0--0-0-1-3-0-0-0--0-0-0--7-6-0-6-5-0-1-3
      . . .  . . .  . . .  . . . . . . .  . . .  . . . . . . . .
    Verse
    e-----------------------------------------------------------
    b-----------------------------------------------------------
    g-----------------------------------------------------------
    d-0-0-0--0-0-0--0-0-0--0-0-1-3-0-0-0--0-0-0--7-6-0-6-5-0-1-3
    a-0-0-0--0-0-0--0-0-0--0-0-1-3-0-0-0--0-0-0--7-6-0-6-5-0-1-3
    d-0-0-0--0-0-0--0-0-0--0-0-1-3-0-0-0--0-0-0--7-6-0-6-5-0-1-3
      . .    . .    . .    . .     . .    . .          
    chorus:
    e----         ----------
    b----         ----------
    g----         ----------
    d-0--    then ----------
    a-0--         -0-1-0-0-1
    d-0--         -0-1-0-0-1
                   .   . .
    
    repeat verse
    
    repeat chorus
    
    repeat riff 2 two times
    
    then
    e--------------------------
    b--------------------------
    g--------------------------
    d-----------------3-3-6-6-5
    a-----------------3-3-6-6-5
    d-0-0-0-0-0-0-0-0-3-3-6-6-5
      . . . . . . . .
    then Intro
    
    play chorus
    
    then
    
    e------------------------------I--
    b------------------------------I--
    g------------------------------I--
    d------------------------------I--
    a------------------------------I--
    d-0-0-0-0-0-0-0-0- 7times then I-0-0-0-0-0-0-0-0-1
      . . . . . . . .                . . . . . . . .
    then
    e----------------------------------------------
    b----------------------------------------------
    g----------------------------------------------
    d-0-0--0-0--0-0-1-1-3-3--0-0--0-0--0-0--3-3-6-6-5
    a-0-0--0-0--0-0-1-1-3-3--0-0--0-0--0-0--3-3-6-6-5
    d-0-0--0-0--0-0-1-1-3-3--0-0--0-0--0-0--3-3-6-6-5
      . .  . .  . .          . .  . .  . .
    then
    e------------                ----------
    b------------                ----------
    g------------  4 times then  ----------
    d------------                -3-3-6-6-5 
    a------5h6-6-                -3-3-6-6-5
    d-0-0-0------                -3-3-6-6-5
      . . .
    
    Outro
    
    e---------------------------------------------------------------------
    b---------------------------------------------------------------------
    g---------------------------------------------------------------------
    d-0-0-0--0-0-0--1-1-1-3-3-3--0-0-0--0-0-0--7-7-7--5-5-5--3-3-3--1-1-1-
    a-0-0-0--0-0-0--1-1-1-3-3-3--0-0-0--0-0-0--7-7-7--5-5-5--3-3-3--1-1-1-
    d-0-0-0--0-0-0--1-1-1-3-3-3--0-0-0--0-0-0--7-7-7--5-5-5--3-3-3--1-1-1-
      . .    . .                 . .    . .
     

    Тональность:

    Нет текста!



    Назад
    Рекомендуем посмотреть другие песни исполнителя «Misc Unsigned Bands»:

    • Комментарии Facebook ()
    • Комментарии ВКонтакте



    Добавить в Избранное Браузера
    Сохранить здесь Очистить


    x

    0


    +
    -

    +
    -

    -

    Авторизация





    Зарегистрироваться

    M

    Дата и время

    • 12:44:13
       

    Социальные ссылки


    Наши приложения

    • Muzbank App Play Market
    • Muzbank Amazon App