MUZBANK



A Most Complete Bank Of Music Information

МУЗЫКАЛЬНО-ИНФОРМАЦИОННЫЙ БАНК

Поиск по сайту







    MMisc Unsigned Bands • Redeemer - Goodbye (аккорды и текст - chords & lyrics)


    174

    Print

    Видео «Redeemer - Goodbye (Misc Unsigned Bands)»

    Видео клипы к песне подбираются автоматически сайтом youtube. Возможны некоторые несоответствия клипов песне.

    ↑ Спрятать рекламу ↑



    Download


     
    
    
    this is my band, kinda, its me and a freind, we need a drummer, but we think we
    have one so, this is our only song, this is my part, the bass part, duh. its
    pretty easy but sounds awesome, we got a blink 182, greenday sound, so maybe you
    will here of us one day.
    
    Standard Tuning
    
    Intro x2
    G|---------------------------------------------------|
    D|---------------------------------------------------|
    A|-----5---------3----------7------------------------|
    E|-3--------7---------5------------------------------|
    
    Verse 1
    G|---------------------------------------------------|
    D|---------------------------------------------------|
    A|-33----33----55----55----44----44----22----22------|
    E|----33----33----55----55----44----44----22----22---|
    
    Verse 1 (cont.)
    G|---------------------------------------------------|
    D|-22-55-44-33-11------------------------------------|
    A|------------------22-55-44-33-11-------------------|
    E|---------------------------------11-44-33-22-00----|
    
    Chorus
    G|-2-1-0---------------------------------------------|
    D|---------------------------------------------------|
    A|---------------------------------------------------|
    E|--------55-99-55-99-55-77-55-77-55-33-11-55-33-11--|
    
    Chorus (cont.)
    G|---------------------------------------------------|
    D|---------------------------------------------------|
    A|-5-5-5-5---------3-3-3-3-5-5-5-5-------------------|
    E|---------3-3-3-3-----------------------------------|
    
    Chorus (cont.)
    G|---------------------------------------------------|
    D|---------------------------------------------------|
    A|---------3-3-3-3-----------------------------------|
    E|-5-5-5-5---------3-3-3-3-5-5-5-5-------------------|
    
    Verse 2
    G|---------------------------------------------------|
    D|---------------------------------------------------|
    A|-2222------3333------4444------1111------2222------|
    E|------2222------3333------4444------1111------2222-|
    
    Solo (middle of verse 2)
    G|---------------------------------------------------|
    D|---------------------------------------------------|
    A|---------------------------------------------------|
    E|-55555555-33333333-44444444-77777777-66666666*5555*|
    Play *5555* together (55555555) and go from solo into verse 2 (cont.)
    
    Verse 2 (cont.)
    G|---------------------------------------------------|
    D|---------------------------------------------------|
    A|------------5555-4444-3333-2222-1111---------------|
    E|*5555*-6666--------------------------3333-2222-1~--|
    
    Outro x2
    G|---------------------------------------------------|
    D|---------------------------------------------------|
    A|---------------------------7--5--7--5--------------|
    E|-3--5--3--5--3--5--3--5--3-------------------------|
    2nd time through let final 5 on A fade out
    
    
    thanx to anybody who learns this!!!!!!! i spent a good 2 months makin
    this sound right, might get the guitar tabs on adventually
     

    Тональность:

    Нет текста!



    Назад
    Рекомендуем посмотреть другие песни исполнителя «Misc Unsigned Bands»:

    • Комментарии Facebook ()
    • Комментарии ВКонтакте



    Добавить в Избранное Браузера
    Сохранить здесь Очистить


    x

    0


    +
    -

    +
    -

    -

    Авторизация





    Зарегистрироваться

    M

    Дата и время

    • 07:21:04
       

    Социальные ссылки


    Наши приложения

    • Muzbank App Play Market
    • Muzbank Amazon App