MUZBANK



A Most Complete Bank Of Music Information

МУЗЫКАЛЬНО-ИНФОРМАЦИОННЫЙ БАНК

Поиск по сайту







    MMisc Unsigned Bands • The No Way Wendy - Cant No M (аккорды и текст - chords & lyrics)


    165

    Print

    Видео «The No Way Wendy - Cant No M (Misc Unsigned Bands)»

    Видео клипы к песне подбираются автоматически сайтом youtube. Возможны некоторые несоответствия клипов песне.

    ↑ Спрятать рекламу ↑



    Download


     
    
    
    this band is sick! they have some cool riffs. the guitarist is too sexy.
    this band is from Albuerque New Mexico. they just came out and are really good?
    
    (intro)
    eb--0--0--0--0--0---0--0--0--0--0------|    these are 10s, not 1s and 0s.
    Bb--0--0--0--0--0---0--0--0--0--0------|
    Gb--9--9--9--9--9---9--9--9--9--9------|4x
    Db--10-10-10-10-10-10-10-10-10-10------|
    Ab--0--0--0--0--0---8--8--8--8--8------|
    Db-------------------------------------|
    
    (verse) x4
    eb-------------------------------------|
    Bb-------------------------------------|
    Gb-5-5-5-5-5-5-5-5-7-7-7-7--9--9--9--9-|
    Db-7-7-7-7-7-7-7-7-9-9-9-9-10-10-10-10-|
    Ab-------------------------------------|
    Db-------------------------------------|
    
    eb-------------------------------------------------|
    Bb-------------------------------------------------|
    Gb-------------------------10-10-10-10--9--9--9--9-|
    Db-10-10-10-10-10-10-10-10-12-12-12-12-10-10-10-10-|
    Ab--8--8--8--8--8--8--8--8-------------------------|
    Db-------------------------------------------------|
    
    (chorus)
    eb-------------------------------------------------|
    Bb-------------------------------------------------|
    Gb-----------------9-9-9-9-10-10-10-10-------------|
    Db-0-0-0-0-0-0-0-0-x-x-x-x--x--x--x--x-------------|x2
    Ab-0-0-0-0-0-0-0-0-7-7-7-7--8--8--8--8-------------|
    Db-0-0-0-0-0-0-0-0---------------------------------|
    
    eb-------------------------------------------------|
    Bb-------------------------------------------------|
    Gb-----------------9-9-9-9-10-10-10-10-------------|x2 (2nd time switch
    Db-3-3-3-3-3-3-3-3-x-x-x-x--x--x--x--x-------------|     the 8 and 7.)
    Ab-3-3-3-3-3-3-3-3-7-7-7-7--8--8--8--8-------------|
    Db-3-3-3-3-3-3-3-3---------------------------------|
    
    (intro)x2
    (verse)
    (chorus)x2
    (intro)x4
    (chorus)x4
    
    end on
    eb---------|
    Bb---------|
    Gb---------|
    Db-0-0-0-0-|
    Ab-0-0-0-0-|
    Db-0-0-0-0-|
     

    Тональность:

    Нет текста!



    Назад
    Рекомендуем посмотреть другие песни исполнителя «Misc Unsigned Bands»:

    • Комментарии Facebook ()
    • Комментарии ВКонтакте



    Добавить в Избранное Браузера
    Сохранить здесь Очистить


    x

    0


    +
    -

    +
    -

    -

    Авторизация





    Зарегистрироваться

    M

    Дата и время

    • 23:19:47
       

    Социальные ссылки


    Наши приложения

    • Muzbank App Play Market
    • Muzbank Amazon App