MUZBANK



A Most Complete Bank Of Music Information

МУЗЫКАЛЬНО-ИНФОРМАЦИОННЫЙ БАНК

Поиск по сайту







    MMisc Unsigned Bands • Where 2 Next - Dont Quit On (аккорды и текст - chords & lyrics)


    184

    Print

    Видео «Where 2 Next - Dont Quit On (Misc Unsigned Bands)»

    Видео клипы к песне подбираются автоматически сайтом youtube. Возможны некоторые несоответствия клипов песне.

    ↑ Спрятать рекламу ↑



    Download


     
    
    
    Band : where 2 next?
    Song : dont quit on me now
    
    
    Hi This tab is 100% righ cause i am the guitarust sand lead singer out
    of where 2 next. if you have any questions or want to by this on CD Email
    me on Robert@dkirk.plus.com
    
    
    Intro
    
    -------------0---------------0---------------------
    -------------0---------------0---------------------
    -------------0---------------0------5555----7777---
    --0-h-2------2---0 h 2-------2------5555----7777---        Repeat twice
    --0 h 2------2---0 h 2-------2------3333----5555---
    ---------0---------------0-------------------------
    
    Verse 
    ------------0------------------0------------------0--------
    ----------0---0--------------0---0--------------0---0------
    --------0-------0----------7------7-----------5-------5----      Repeat Three times
    ------2-----------2------7----------7-------5-----------5--
    ----2------------------5------------------3----------------
    --0------------------0------------------0------------------
    
    
    Chorus
    -------------0---------------0-------------------
    -------------0---------------0-------------------
    -------------0---------------0------7777---5555--
    --0-h-2------2---0 h 2-------2------7777---5555--         Repeat three times
    --0 h 2------2---0 h 2-------2------5555---3333--
    ---------0---------------0-----------------------
    Solo
    -----------------------------------------------------------
    -----------------------------------------------------------
    -----------------------------------------------------------
    ------------------------------------------6-6-6-5-5-5------   Repeat three times
    ---10-10-10-9--9--9--10-10--10--9--9--9---3-3-3-3-3-3------
    ---0--0--0--0--0--0--0--0---0---0--0--0--------------------
    
    Outro
    ------------------------------------------------------------------
    ------------------------------------------------------------------
    ------------------------------------------------------------------
    --9-9--10--9--9----9-9--10-9-9---9 9--10-9-9--8---10101010-9------
    --x-x--x---x--x----x-x--x--x-x---x-x--x--x-x--x--x-x-x--x-x-------
    --7-7--8---7--7----7-7--8--7-7---7-7--8--7-7--6--8-8-8-8--7-------
    
    Order
    
    Intro
    Verse 1
    Chorus
    Verse 2
    Chorus
    Solo
    Verse 3
    Chorus
    Outro
     

    Тональность:

    Нет текста!



    Назад
    Рекомендуем посмотреть другие песни исполнителя «Misc Unsigned Bands»:

    • Комментарии Facebook ()
    • Комментарии ВКонтакте



    Добавить в Избранное Браузера
    Сохранить здесь Очистить


    x

    0


    +
    -

    +
    -

    -

    Авторизация





    Зарегистрироваться

    M

    Дата и время

    • 22:18:39
       

    Социальные ссылки


    Наши приложения

    • Muzbank App Play Market
    • Muzbank Amazon App