MUZBANK



A Most Complete Bank Of Music Information

МУЗЫКАЛЬНО-ИНФОРМАЦИОННЫЙ БАНК

Поиск по сайту







    MMisc Wwf • Rvd One Of A Kind (аккорды и текст - chords & lyrics)


    297

    Print

    Видео «Rvd One Of A Kind (Misc Wwf)»

    Видео клипы к песне подбираются автоматически сайтом youtube. Возможны некоторые несоответствия клипов песне.

    ↑ Спрятать рекламу ↑



    Download


     
    
    
    -------------------------------------------------------------------------------
    			     One of a Kind - Breaking Point
    -------------------------------------------------------------------------------
    
    Tabbed by:AerialToxicity
    Email:tboysk8r@hotmail.com
    
    Tuning:Drop D(Drop E string down 1/2 step)DADGBE
    
    Opening on forceable entry:
       + + +   
    e|--------|
    B|--------|
    G|--------| x3
    D|--------|
    A|-1-1-1--|
    D|-1-1-1--|
    
    Main Riff
    
    e|-----------------------------
    B|-----------------------------
    G|-----------------------------
    D|----------------------------- ? times
    A|-0-0-0-3--0-0-3--0-0-3-2-2-0-
    D|-0-0-0-3--0-0-3--0-0-3-2-2-0-
    
    Cool thing played in the song
    
    *note:You can play this on the A string too. Whatever sounds better to you.
    
    e|----------------------|
    B|----------------------|
    G|----------------------|
    D|----------------------|
    A|----------------------|
    D|0-0-0-3-6-6-5-3-2-2-0-|
    
    
    
    Outro
    
       + + +  + + +
    e|---------------------------------------------------------------------------|
    B|---------------------------------------------------------------------------|
    G|---------------------------------------------------------------------------|
    D|---------------------------------------------------------------------------|
    A|-1-1-1--1-1-1--0-1-0-1-0-0-0-----------------------------------------------|
    D|-1-1-1--1-1-1--0-1-0-1-0-0-0-----------------------------------------------|
    
    
    And thats all i know, so have fun
    
    
    
    | /  slide up
    |   slide down
    | h  hammer-on
    | p  pull-off
    | ~  vibrato
    | +  harmonic(hold strings very lightly with neck hand)
    | x  Mute note
    
    ===============================================================================
     

    Тональность:

    Нет текста!



    Назад
    Рекомендуем посмотреть другие песни исполнителя «Misc Wwf»:

    • Комментарии Facebook ()
    • Комментарии ВКонтакте



    Добавить в Избранное Браузера
    Сохранить здесь Очистить


    x

    0


    +
    -

    +
    -

    -

    Авторизация





    Зарегистрироваться

    M

    Дата и время

    • 05:25:00
       

    Социальные ссылки


    Наши приложения

    • Muzbank App Play Market
    • Muzbank Amazon App