MUZBANK



A Most Complete Bank Of Music Information

МУЗЫКАЛЬНО-ИНФОРМАЦИОННЫЙ БАНК

Поиск по сайту







    MMisc Your Songs • Insecure (аккорды и текст - chords & lyrics)


    240

    Print

    Видео «Insecure (Misc Your Songs)»

    Видео клипы к песне подбираются автоматически сайтом youtube. Возможны некоторые несоответствия клипов песне.

    ↑ Спрятать рекламу ↑



    Download


     
    
    
    ------------------------------------------------------------
    			     Insecure
    ------------------------------------------------------------
    
    
    I just started to play guitar. My older brother made this up and then taught it to me 
    so I decided to tab it to see what other people thought of it.
    
    
    By: Lssthnjake48
             Am                                  C
    e|------------------|----------3-0-----|-----------------|
    B|------1---3-1-0-1-|------1-------3-1-|-----1---3-1-0-1-|
    G|----2---2---------|----2---2---------|-----------------|
    D|--2---------------|--3---------------|---2---2---------|
    A|------------------|------------------|-3---------------|
    E|------------------|------------------|-----------------|
                             Am               C
    e|------------------|--000000-|-003000-|-000000-|
    B|-----1----3/5-3-1-|--113101-|-111131-|-113101-|
    G|------------------|--222222-|-222222-|-000000-|
    D|---2---2----------|--222222-|-333333-|-222222-|
    A|-2----------------|---------|--------|-333333-|
    E|------------------|---------|--------|--------|
    
    e|-0-0-0-0-0-0-|
    B|-1-1-3-1-0-1-|
    G|-0-0-0-0-0-0-|
    D|-2-2-2-2-2-2-|
    A|-2-2-2-2-2-2-|
    E|-------------|
    
    Repeat chord section twice and play intro again etc..
     

    Тональность:

    Нет текста!



    Назад
    Рекомендуем посмотреть другие песни исполнителя «Misc Your Songs»:

    • Комментарии Facebook ()
    • Комментарии ВКонтакте



    Добавить в Избранное Браузера
    Сохранить здесь Очистить


    x

    0


    +
    -

    +
    -

    -

    Авторизация





    Зарегистрироваться

    M

    Дата и время

    • 03:14:24
       

    Социальные ссылки


    Наши приложения

    • Muzbank App Play Market
    • Muzbank Amazon App