MUZBANK



A Most Complete Bank Of Music Information

МУЗЫКАЛЬНО-ИНФОРМАЦИОННЫЙ БАНК

Поиск по сайту







    MMisc Your Songs • Ring Of Fire (аккорды и текст - chords & lyrics)


    207

    Print

    Видео «Ring Of Fire (Misc Your Songs)»

    Видео клипы к песне подбираются автоматически сайтом youtube. Возможны некоторые несоответствия клипов песне.

    ↑ Спрятать рекламу ↑



    Download


     
    
    
    Dylan and Chris
    This is a local (oregon state) group.  I know no one knows who we are.  Just wanted to get it out there.
    
    Intro:
    e|---------------------------------------------------------|
    B|---------------------------------------------------------|
    G|-----0-----0-------------0-----0-------------------------|
    D|-------2-----2-------------2-----2-----------0-----0-----|
    A|-2-2-----2-----2-----3-3-----3-----3-----------2-----2---|
    E|-----------------------------------------3-3-----3-----3-|
    
    e|-----------------|
    B|-----------------|
    G|-----------0-----|  repeat 4 times
    D|-----0-------0---|
    A|-------0-------0-|
    E|-2-2-----2-------|
    
    
    Main part:
    e|-0--0--2----|
    B|-0--1-(2)---|
    G|-0--0--0----|  strum each chord several times
    D|-2--2--0----|
    A|-2--3--2--0-|
    E|-x--x--3--1-|
    
    Verse:
    e|---------------------------------------------------------|
    B|---------------------------------------------------------|
    G|-0-0-0-0--0-0-0-0----------------------------------------|
    D|-2-2-2-2--2-2-2-2--0-0-0-0--0-0-0-0----------------------|
    A|-2-2-2-2--3-3-3-3--3-3-3-3--0-0-0-0----------------------|
    E|-------------------2-2-2-2--1-1-1-1----------------------|
       * * * *  * * * *  * * * *  * * * * (palm mute)
    
    Outro:
    e|---------------------------------------------------------|
    B|---------------------------------------------------------|
    G|-----0-----0-------------0-----0-------------------------|
    D|-------2-----2-------------2-----2-----------0-----0-----|
    A|-2-2-----2-----2-----3-3-----3-----3-----------2-----2---|
    E|-----------------------------------------3-3-----3-----3-|
       * * * * *  * * *    * * * * * * * *     * * * * * * * *
    e|-----------------|
    B|-----------------|
    G|-----------0-----|  repeat until fade
    D|-----0-------0---|
    A|-------0-------0-|
    E|-1-1-----1-------|
       * * * * * * * * (palm mute)
     

    Тональность:

    Нет текста!



    Назад
    Рекомендуем посмотреть другие песни исполнителя «Misc Your Songs»:

    • Комментарии Facebook ()
    • Комментарии ВКонтакте



    Добавить в Избранное Браузера
    Сохранить здесь Очистить


    x

    0


    +
    -

    +
    -

    -

    Авторизация





    Зарегистрироваться

    M

    Дата и время

    • 06:58:00
       

    Социальные ссылки


    Наши приложения

    • Muzbank App Play Market
    • Muzbank Amazon App