MUZBANK



A Most Complete Bank Of Music Information

МУЗЫКАЛЬНО-ИНФОРМАЦИОННЫЙ БАНК

Поиск по сайту







    MMisc Your Songs • Shes A Bitch (аккорды и текст - chords & lyrics)


    196

    Print

    Видео «Shes A Bitch (Misc Your Songs)»

    Видео клипы к песне подбираются автоматически сайтом youtube. Возможны некоторые несоответствия клипов песне.

    ↑ Спрятать рекламу ↑



    Download


     
    
    
    Tuning=Dropped C (cgcfad?)
    /=slide
    play this whole fuckin song really fast!
    
    Intro: theres is none yet were still workin on something better
    Verse: guitar 1 (you) play fast or it will sound like shit
    : ----------------------------------------------:
    : ----------------------------------------------:
    : ----------------------------------------------:
    : ------0-0-0-0--3-3-3-3--2-2-2-2---------------:
    : ----------------------------------3-3-3-3-----:
    : ----------------------------------------------:
    
           guitar 2 (me) play this fast to or it will also be gay
    
    : -------------------------------------------------:
    : -------------------------------------------------:
    : -------------------------------------------------:
    : -2-2-2-2--/10-10-10-10--/5-5-5-5--/12-12-12-12---:
    : -2-2-2-2--/10-10-10-10--/5-5-5-5--/12-12-12-12---:
    : -2-2-2-2--/10-10-10-10--/5-5-5-5--/12-12-12-12---:
    *play verse 2x
    
    
    Chorus: guitar 2 once again you must also play this shit fast
    : -------------------------------------------------:
    : -------------------------------------------------:
    : -------------------------------------------------:
    : -2----------/10----------/5----------/12---------:
    : -2-(8x)-----/10-(8x)-----/5-(8x)-----/12-(8x)----:
    : -2----------/10----------/5----------/12---------:
    
            guitar 1 play this and the one below it at the same time 
    : ------------------------------------------------------------------:
    : ------------------------------------------------------------------:
    : ------------------------------------------------------------------:
    : -0---------/7---------/3---------/5---------/7---------/0---------:
    : -0-(8x)----/7-(8x)----/3-(8x)----/5-(4x)----/7-(4x)----/0-(2x)----:
    : -0---------/7---------/3---------/5---------/7---------/0---------:
     

    Тональность:

    Нет текста!



    Назад
    Рекомендуем посмотреть другие песни исполнителя «Misc Your Songs»:

    • Комментарии Facebook ()
    • Комментарии ВКонтакте



    Добавить в Избранное Браузера
    Сохранить здесь Очистить


    x

    0


    +
    -

    +
    -

    -

    Авторизация





    Зарегистрироваться

    M

    Дата и время

    • 13:23:06
       

    Социальные ссылки


    Наши приложения

    • Muzbank App Play Market
    • Muzbank Amazon App