MUZBANK



A Most Complete Bank Of Music Information

МУЗЫКАЛЬНО-ИНФОРМАЦИОННЫЙ БАНК

Поиск по сайту







    MMisc Your Songs • Stairway To Rock (аккорды и текст - chords & lyrics)


    198

    Print

    Видео «Stairway To Rock (Misc Your Songs)»

    Видео клипы к песне подбираются автоматически сайтом youtube. Возможны некоторые несоответствия клипов песне.

    ↑ Спрятать рекламу ↑



    Download


     
    
    
    This is kind of a mix between stairway to heaven and rock and roll, both by Led Zeppelin.
    
    | /  slide up
    |   slide down
    | h  hammer-on
    | p  pull-off
    | ~  vibrato
    | +  harmonic
    | x  Mute note
    
    
    Artist:The Rebels
    Song:Stairway to Rock
    Album:(unnamed)
    Tabbed by:Bob
    Email:freedoggy77@yahoo.com
    
    Intro-
    
    e|----5-7--7-8-0-5-7-7---0----3----|
    B|---5----5----------7--1--0-3-----|
    G|--5----5-----------7-2--0--------|
    D|-7----6----5--------3------------|
    A|---------------------------------|
    E|-----------------------------3-5-|
    
    Verse1-
    
    e|-------------------------------------------------|
    B|-------------------------------------------------|
    G|-----------------------7-7-------------7-7-------|
    D|-5-7-5-7-5-7-7-7-7-7-7-7-7-10-10-10-10-7-7-10-5-7|
    A|-5-7-5-7-5-7-7-7-7-7-7-5-5-10-10-10-10-5-5-10-5-7|
    E|-3-5-3-5-3-5-5-5-5-5-5-----8--8--8--8------8--3-5|
    
    He tried to climb the stairway, but there were too many steps...
    
    Solo-
    
    e|-14-17-12-9-----|
    B|-----------10-12| x 4
    
    Outro-
    
    e|----5-7--7-8-0-5-7-7---0----3----|
    B|---5----5----------7--1--0-3-----|
    G|--5----5-----------7-2--0--------|
    D|-7----6----5--------3------------|
    A|---------------------------------|
    E|-----------------------------3-5-|
    
    Order-
    Introx3
    Verse1
    Solox3
    verse1
    Intro x1
    Solox2
    Outro
     

    Тональность:

    Нет текста!



    Назад
    Рекомендуем посмотреть другие песни исполнителя «Misc Your Songs»:

    • Комментарии Facebook ()
    • Комментарии ВКонтакте



    Добавить в Избранное Браузера
    Сохранить здесь Очистить


    x

    0


    +
    -

    +
    -

    -

    Авторизация





    Зарегистрироваться

    M

    Дата и время

    • 07:17:37
       

    Социальные ссылки


    Наши приложения

    • Muzbank App Play Market
    • Muzbank Amazon App